Papa Roach - Sometimes Chords & Tabs

 

Sometimes Chords & Tabs

Papa Roach Chords & Tabs

Version: 3 Type: Tab 0 ratings
1 star 2 stars 3 stars 4 stars 5 stars
comments

Sometimes Tab

Papa Roach - Sometimes

Intro/Verse (clean acoustic):
||--------------------------|
||-----3---------7-----7----|  
||---0---0-----0---0--------|  
||-4-------4/9-------9---9\-|  
||--------------------------|  
||--------------------------|


||--------------------------|
||-----3---------7-----7----|  
||---0---0-----0---0--------|  
||-4-------4/9-------9---9\-|  
||--------------------------|  
||--------------------------|

||--------------------------|
||-----3---------7-----7----|  
||---0---0-----0---0--------|  
||-4-------4/9-------9---9\-|  
||--------------------------|  
||--------------------------|

[ Tab from: http://www.guitartabs.cc/tabs/p/papa_roach/sometimes_tab_ver_3.html ]
||--------------------------|
||-----3---------7-----7----|  
||---0---0-----0---0--------|  
||-4-------4/9-------9---9\-|  
||--------------------------|  
||--------------------------|


||--------------------------|
||-----3---------7-----7----|  
||---0---0-----0---0--------|  
||-4-------4/9-------9---9\-|  
||--------------------------|  
||--------------------------|


||--------------------------|
||-----3---------7-----7----|  
||---0---0-----0---0--------|  
||-4-------4/9-------9---9\-|  
||--------------------------|  
||--------------------------|
questions or suggestions to:
bizkitbone@pisem.net

    !!! =)
Comments