Papa Roach - Sometimes Chords & Tabs

 

Sometimes Chords & Tabs

Papa Roach Chords & Tabs

Version: 2 Type: Tab 0 ratings
1 star 2 stars 3 stars 4 stars 5 stars
comments

Sometimes Tab

Tabbed by: Pete Searle
Artist: Papa Roach
Title: Sometimes
Tuning: DbAbDbGbBbEb

Intro 1:Clean(w/chorus)

|-----1----------5-----5--------1----------5-----5-|
|------------------6-------------------------6-----| //Legato slide up
|-3-2---2-3//7-7-----7---7\\3-2---2-3//7-7-----7---| \\Legato slide down
|--------------------------------------------------| 1x
|--------------------------------------------------|
|--------------------------------------------------|

|-----1----------5-----5--------1---------5-----5--------1----------5-----5------|
|------------------6------------------------6-------------------------6----------|
|-3-2---2-3//7-7-----7---7\\3-2---2-3//7-7----7---7\\3-2---2-3//7-7-----7---7\\3-|
|--------------------------------------------------------------------------------| 1x
|--------------------------------------------------------------------------------|
|--------------------------------------------------------------------------------|

|---1----------5-----5------|    |---1----------5---------------------------------------|
|----------------6----------|    |----------------6------3------3---------6-------6-5---| \\\slide-
|-2---2-3//7-7-----7---7\\3-|    |-2---2-3//7-7--------3---3---3-3------7---7---7-----7-| down
|---------------------------| 4x |-------------------5-------5----5\\\8-------8---------| 1x
|---------------------------|    |------------------------------------------------------| 
|---------------------------|    |------------------------------------------------------|

Intro 2:(w/distortion)
P.M as indicated
|---------------------------------------------------------------------------------------|
|---------------------------------------------------------------------------------------| \\\slide-
|------------------------------------------------------------------------------------3--| down
|-7-7\\\5-5-----------8--------------10-1012\\\-0--0-0---5---5-7-7-7-7-5-5-5555-3-33-3--| 1x
|-5-5\\\3-3-3333-8-88-8--8-8-8-8-8-8-10-1012\\\-0--0-0-0-3-0-3-5-5-5-5-3-3-3333-1-11-1--|
|-7-7\\\3-3-3333-8-88-8--8-8-8-8-8-8-10-1012\\\-0--0-0-0-3-0-3-7-7-7-7-3-3-3333---------|
P.M         ....                                     .   . 

|------------------------------|
|------------------------------| ~~let-
|----------------5------2~~~~~-| ring
|-3-3-3-3-3-3-33-5--555-0~~~~~-| 1x
|-1-1-1-1-1-1-11-3--333-0~~~~~-|
|-----------------------0~~~~~-|

Verse 1:Clean(w/chorus)

|-----1----------5-----5--------1---------5-----5--------1----------5-----5------|
|------------------6------------------------6-------------------------6----------|
|-3-2---2-3//7-7-----7---7\\3-2---2-3//7-7----7---7\\3-2---2-3//7-7-----7---7\\3-|
|--------------------------------------------------------------------------------| 1x
|--------------------------------------------------------------------------------|
|--------------------------------------------------------------------------------|

|---1----------5-----5------|    
|----------------6----------|    
|-2---2-3//7-7-----7---7\\3-|    
|---------------------------| 3x 
|---------------------------|    
|---------------------------|    

|---1----------5---------------------------------------|
|----------------6------3------3---------6-------6-5---| \\\slide-
|-2---2-3//7-7-------3----3---3-3------7---7---7-----7-| down
|-------------------5-5-----5----5\\\8-------8---------| 1x
|------------------------------------------------------|
|------------------------------------------------------|

Chorus 1:(w/distortion)
P.M as indicated
|----------------------------------------------------------------------------------------|
|----------------------------------------------------------------------------------------| \\\slide-
|----------------------------------------------------------------------------------------| down
|-7-7\\\5-5-----------8--------------10-10-10\\\-0--0-0---5---5-7-7-7-7-5-5-5555-8-88-8--| 1x
|-5-5\\\3-3-3333-8-88-8--8-8-8-8-8-8-10-10-10\\\-0--0-0-0-3-0-3-5-5-5-5-3-3-3333-8-88-8--|
|-7-7\\\3-3-3333-8-88-8--8-8-8-8-8-8-10-10-10\\\-0--0-0-0-3-0-3-7-7-7-7-3-3-3333-8-88-8--|
P.M         ....                                        .   . 



[ Tab from: http://www.guitartabs.cc/tabs/p/papa_roach/sometimes_tab_ver_2.html ]
|------------------------------------------------------------------------------------|
|-------------------------------------8888888----------------------------------------| r-start to
|-------------------------------------7777777-----------------------------1717171717-| release
|-8-8-8-8-8-8-8------5-7-5-3-0--0-0-0-5555555-8-8-12-121212-12-1212-12-12-1212121212-| 1x
|-8-8-8-8-8-8-8-8\\7-5-7-5-3-0--0-0-0---------8-8-10-101010-12-1212-12-12-1212121212-|
|-8-8-8-8-8-8-8-8\\7-5-7-5-3-0--0-0-0---------8-8-10-101010-12-1212-12-12-1212121212-|
P.M                                   ...rrrr





|----------------------------------------------------------------------------------| \\\slide-
|----------------------------------------------------------------------------------| down
|-141414-----------------------------1717171717-141414-----------------------------| x-mute strings
|-121212-8-8-12-121212-12-1212-12-12-1212121212-121212-8-8-12------0--0-0-x-5-5\\\-| 1x
|-121212-8-8-10-101010-12-1212-12-12-1212121212-121212-8-8-10-0000-0--0-0-x-3-3\\\-|
|-121212-8-8-10-101010-12-1212-12-12-1212121212-121212-8-8-10-0000-0--0-0-x-3-3\\\-|
P.M                                                           ....

|-------------------------------|
|-------------------------------|
|-------------------------------|
|-8-8-8-8-8-8-8-7-7-7-7-7-7-7-7-| 1x
|-8-8-8-8-8-8-8-7-7-7-7-7-7-7-7-|
|-8-8-8-8-8-8-8-7-7-7-7-7-7-7-7-|

Solo 1:(w/distortion)

|-----------------------------------------------------------------------------------| \\\slide-
|-10-10101010--10-10-11p10-------------6---------6\\\----------6p5------///10-10-10-| down
|--------------------------10--10-10\\\-7-5-5-5-7----7-7777--7----7p5---------------| ///slide-
|--------------------------------------------------------------------7p5------------| up
|-----------------------------------------------------------------------------------| 1x
|-----------------------------------------------------------------------------------|
     
     |--sb-|slightly bend the string while picking the notes at the same time
     |     |                                                
     |     |                                          Mini solo at the end of solo 1
|----|     |-------------------------------------|    |----------------------------| h-hammer 
|-13-13-1313-13\\\-------------------------------|    |-10h11-10-10-10-10-10-10~~~-| ~~let-
|----------------9--9-1010-12\\\-5-5-5-5-5-5-5-5-|    |----------------------------| ring
|----------------x--x-x-x--x\\\\-x-x-x-x-x-x-x-x-| 1x |----------------------------| 1x
|----------------7--7-8-8--10\\\-3-3-3-3-3-3-3-3-|    |----------------------------|
|------------------------------------------------|    |----------------------------|

Chorus 2:(w/distortion)
P.M as indicated
|-------------------------------------------------------------------------|
|-------------------------------------------------------------------------| \\\slide-
|-------------------------------------------------------------------------| down
|-7-7\\\5-5-----------8--------------10-101012\\\-0--0-0-0---5---5-7-7\\\-| 1x
|-5-5\\\3-3-3333-8-88-8--8-8-8-8-8-8-10-101012\\\-0--0-0-0-0-3---3-5-5\\\-|
|-7-7\\\3-3-3333-8-88-8--8-8-8-8-8-8-10-101012\\\-0--0-0-0-0-3---3-7-7\\\-|
P.M         ....                                           . 

|--------------------------------------------------------------------------|
|--------------------------------------------------------------------------|
|--------------------------------------------------------------------------|
|-5-5------8-88-8---8-8-8-8------5-7-5-3-0--0-0-0---5---5-7-7-7-7-5-5-5555-| 1x
|-3-3-3333-8-88-8---8-8-8-8-8\\7-5-7-5-3-0--0-0-0-0-3---3-5-5-5-5-3-3-3333-|
|-3-3-3333-8-88-8---8-8-8-8-8\\7-5-7-5-3-0--0-0-0-0-3---3-7-7-7-7-3-3-3333-|
P.M   ....                                        .

|---------------------------------------------------------------------------|
|---------------------------------------------------------------------------|
|---------------------------------------------------------------------------|
|-88888888888888788888888-1010101010101010-12121212121212121212121212121212-| 1x
|-88888888888888788888888-1010101010101010-12121212121212121212121212121212-|
|-88888888888888788888888-1010101010101010-12121212121212121212121212121212-|
                         
|------------------------------------------------------------------------------------|
|------------------------------------------------------------------------------------| ~let-
|-------------------------10101010101010101010101010101010-10--10--------------------| ring
|-00000000-15151515-17-19-8-8-8-8-8-8-8-8-8-8-8-8-8-8-8-8--8---8--10-10-------5~~~~~-| 1x
|-00000000-15151515-15-15-8-8-8-8-8-8-8-8-8-8-8-8-8-8-8-8--8---8--10-10-10-10-5~~~~~-|
|-00000000-15151515-15-15-8-8-8-8-8-8-8-8-8-8-8-8-8-8-8-8--8---8--10-10-10-10-5~~~~~-|
P.M                                                                     .P.M.

I decided to tab out sometimes because I could only find the solo on this website, so I hope this 
Will please everyone that has been looking for this tab. This tab has taken me bloody ages 
And its only my third so please rate my tab. Have fun.
Comments