Papa Roach - Sometimes Chords & Tabs

 

Sometimes Chords & Tabs

Papa Roach Chords & Tabs

Version: 1 Type: Tab 0 ratings
1 star 2 stars 3 stars 4 stars 5 stars
comments

Sometimes Tab

Band- Papa Roach
Song-Sometimes
[ Tab from: http://www.guitartabs.cc/tabs/p/papa_roach/sometimes_tab.html ]
C#|---------------------------------------------------------------------------|
A#|-10-10-10-10-10vv10-11p10-------------------------------------653----------|
F#|--------------------------9vvv-------5----------10---\7-7vvv------52-------|
C#|---------------------------------5h7------10h12----------------------5-----|
B |---------------------------------------------------------------------------|
C#|---------------------------------------------------------------------------|


--5vvvv5vv5vv---8-8b-8--------------------------------------------------------|
------------------------------------------------------------------------------|
----------------------9-9-x-10-x--12-5--55--x---10975-------------------------|
----------------------x-x-x-x--x--x--x--xx--x---x-xxx-------------------------|
----------------------7-7-x-8--x--10-3--33--x---8-753-------------------------|
------------------------------------------------------------------------------|
Comments