Papa Roach - Snakes Chords & Tabs

 

Snakes Chords & Tabs

Papa Roach Chords & Tabs

Version: 5 Type: Tab 0 ratings
1 star 2 stars 3 stars 4 stars 5 stars
comments

Snakes Tab

Song: PAPA ROACH - Snakes
Tabber: Jason
Email: coz200059@hotmail.com

I've wanted to play this for awhile and NOONE had the
beginnng right.  This is about 99.9% and thats alot
coming from me cuz i hate seeing crap on this 
website.

Dropped-D tuning (DADGBE) low-to-high

 Intro and Bridge 2  (I Tried putting exact notes but it i couldnt)

This is all up and down strumming  
(0:00-00:10) (02:21-02:42)
E|------------------------------------------
B|------------------------------------------
G|--555555--999999910101010-99999-----------
D|--555555--9999999-9-9-9-9-99999-----------
A|--333333--7777777-7-7-7-7-77777-----------
D|------------------------------------------
                                        

verse:
1st Part			2nd Part

(00:10-00:28)		(00:28-00:31)
(00:31-00:50)		(00:51-00:53)

Strum this first part all  "Up Down Up Down" Very Fast
-----------------------------------------
-----------------------------------------
-9----7--------------|-------------------
-x----x--------------|-7-/-8-8-8-8-------
-7----5--------------|-7-/-8-8-8-8-------
---------------------|-7-/-8-8-8-8-------
 Play Each Note 16x play this evry other time                         
 
Chrous 
(00:53-01:14)
-------------------------------------------------
-------------------------------------------------
-------------------------------------------------
-7-7-7--7---3-3-3--3----0-0-0---0---3-2--3-2-----
-7-7-7--7---3-3-3--3----0-0-0---0---3-2--3-2-----
-7-7-7--7---3-3-3--3----0-0-0---0---3-2--3-2-----

Verse: 1st part		2nd part
(01:15-01:33)		(01:33-01:35)
(01:36-01:46)
[ Tab from: http://www.guitartabs.cc/tabs/p/papa_roach/snakes_tab_ver_5.html ]
                                                                       
Bridge 1
(01:46-01:52)
----------------------------------------
----------------------------------------
----------------------------------------
-7/-------5---7---8/-----5-5------------
-7/-------5---7---8/-----5-5------------
-7/-------5---7---8/-----5-5------------

verse: 1st Part		2nd part
(01:52-01:54)		(01:54-01:59)

Choruse
(01:59-02:21)

Bridge 2(from above)
(02:21-02:42)

Outro 
First Part		2nd part
(02:43-03:13)		(03:14-03:21)
----------------------------------------|
----------------------------------------|
----------------------------------------|
-7-7--7-7--0-0--0-0--8-8--8-8--2-2--3-2-|
-7-7--7-7--0-0--0-0--8-8--8-8--2-2--3-2-|
-7-7--7-7--0-0--0-0--8-8--8-8--2-2--3-2-|

-------------------------------------------|----------------------
-------------------------------------------|----------------------
----------------------7-7--7-7--9-9--9-9---|----------------------
-7-7--7-7--0-0--0-0---x-x--x-x--x-x--x-x---|2-2--3-2--2-2--3-2----
-7-7--7-7--0-0--0-0---5-5--5-5--7-7--7-7---|2-2--3-2--2-2--3-2----
-7-7--7-7--0-0--0-0------------------------|2-2--3-2--2-2--3-2----

End on this Chord     
(03:22)              
--------
--------
--------
-7------
-7------
-7------

Ok thats it, timing is 100% perfect with the CD.  Doesnt 
get any easier then that to play.  I dont do to many tabs
but I do them if their arent any decent ones out there.
Please rate this, play it before you rate it please, alot of 
people think that its wrong just by looking, believe me this
is right.  Email me if you dont think so.
Comments