Papa Roach - Snakes Chords & Tabs

 

Snakes Chords & Tabs

Papa Roach Chords & Tabs

Version: 2 Type: Tab 0 ratings
1 star 2 stars 3 stars 4 stars 5 stars
comments

Snakes Tab

   
Song: SnakeS
Artist: Papa Roach
Album: Infest
Tabbed by: WW
  ________________________________________
 /| Tuning: Dropped D |	~   = ring	 |\
/ | /   = slide up    |	h   = hold	 | \
\ | \   = slide down  |[p.m]= palm mute  | /
 \|___________________|__________________|/

-=intro::::
e|-------------------------------------------------|
b|-------------------------------------------------|
g|-5-5-5-5-5-5/14-14-14-14-14-14-14-14-14-14-14-14-|
d|-x-x-x-x-x-x/-x--x--x--x--x--x--x--x--x--x--x--x-|Guitar I
a|-3-3-3-3-3-3/12-12-12-12-12-12-12-12-12-12-12-12-|
d|-------------------------------------------------|

e|---------------------------------------------------------|
b|---------------------------------------------------------|
g|------------------------------10-10-10-10-10\9-9-9-9-9-9-|
d|-------------------------------x--x--x--x--x\x-x-x-x-x-x-|Guitar II
a|-------------------------------8--8--8--8--8\7-7-7-7-7-7-|
d|---------------------------------------------------------|

-=verse::::
e|-------------------------------------------------------------------|
b|-------------------------------------------------------------------|
g|-9-9-9-9-9-9-9-9\7-7-7-7-7-7-7-7-7/-9-9-9-9-9/10-10-10-10-10-10-10-|
d|-x-x-x-x-x-x-x-x\x-x-x-x-x-x-x-x-x/-x-x-x-x-x/-x--x--x--x--x--x--x-|
a|-7-7-7-7-7-7-7-7\5-5-5-5-5-5-5-5-5/-7-7-7-7-7/-8--8--8--8--8--8--8-|
d|-------------------------------------------------------------------|

fill in's at some points
e|-----------------------------------|
b|-----------------------------------|
g|-----------------------------------|
d|-7/x-8-8-8-8-8-8-----7/8-8-8-8-8---|
a|-7/x-8-8-8-8-8-8-----7/8-8-8-8-8-8-|
d|-7/x-8-8-8-8-8-8-----7/8-8-8-8-8-8-|
[ Tab from: http://www.guitartabs.cc/tabs/p/papa_roach/snakes_tab_ver_2.html ]
-=chorus::::
e|-------------------------------------------|
b|-------------------------------------------|
g|-------------------------------------------|
d|-7-7-7-7-7-3-3-3-3-0-0-0-0-0-3-2-2-2-3-2-2-|
a|-7-7-7-7-7-3-3-3-3-0-0-0-0-0-3-2-2-2-3-2-2-|
d|-7-7-7-7-7-3-3-3-3-0-0-0-0-0-3-2-2-2-3-2-2-|

-=sort of break::::
e|-------------------------------|
b|-------------------------------|
g|-------------------------------|
d|-7/(11)------7-8/(11)-----5--5-|
a|-7/(11)------7-8/(11)-----5--5-|
d|-7/(11)------7-8/(11)-----5--5-|

-=bridge::::
e|-------------------------------------------------|
b|-------------------------------------------------|
g|-5-5-5-5-5-5/14-14-14-14-14-14-14-14-14-14-14-14-|
d|-x-x-x-x-x-x/-x--x--x--x--x--x--x--x--x--x--x--x-|Guitar I
a|-3-3-3-3-3-3/12-12-12-12-12-12-12-12-12-12-12-12-|
d|-------------------------------------------------|

e|-----------------------------------|
b|-----------------------------------|
g|-----------------------------------|	
d|-3-3-3-3-3-3-3/7-7-7-7-7-7-7-7-7-7-|Guitar II
a|-3-3-3-3-3-3-3/7-7-7-7-7-7-7-7-7-7-|
d|-3-3-3-3-3-3-3/7-7-7-7-7-7-7-7-7-7-|

-=outro/end::::
e|-----------|-----------|-----------|---------|
b|-----------|-----------|-----------|---------|
g|-----------|-----------|-----------|---------|	
d|-7-7---7-7-|-0-0---0-0-|-8-8---8-8-|-2-2/3\2-|
a|-7-7---7-7-|-0-0---0-0-|-8-8---8-8-|-2-2/3\2-|
d|-7-7---7-7-|-0-0---0-0-|-8-8---8-8-|-2-2/3\2-|


e|--------------------|
b|--------------------|
g|--------------------|	
d|-7------------7-7/--|
a|-7------------7-7/--|
d|-7------------7-7/--|


Most part should be correct....
comments: wilkowolbers@hotmail.com











		
Comments