Papa Roach - Singular Indestructible Droid Chords & Tabs

 

Singular Indestructible Droid Chords & Tabs

Papa Roach Chords & Tabs

Version: 1 Type: Tab 0 ratings
1 star 2 stars 3 stars 4 stars 5 stars
comments

Singular Indestructible Droid Tab

   
Papa Roach
"Singular Indestructible Droid"
From the album "lovehatetragedy"
Tabbed by: Brandon Knoepfler
E-Mail: SeXCrAzY121900@aol.com
Drop C Tunning(Drop D Tunning Down 1 Full Step)

Intro w/ Occasional Pinch Harmonics:
D|-----------------------------------------------------------------------------|
A|-----------------------------------------------------------------------------|
F|-----------------------------------------------------------------------------|
C|-2-2-2-2-2-2-2-2-2-2-2-2-2-2-2-2-2-2-2-2-2-2-2-2-2-2-2-2-2-2-2-2-2-2-2-2-2-2-|
G|-----------------------------------------------------------------------------|
C|-----------------------------------------------------------------------------|

End of Intro, Also   between Heavy Parts of the Bridge
D|-------------------------------------|
A|-------------------------------------|
F|-------------------------------------|
C|-------------------------------------|
G|-10p9-7-7--9p7-5-5--7p5-3-3--5p3-2-2-|
C|-------------------------------------|

Pre-Chorus:
D|-----------------------------------------------------------------------------|
A|-----------------------------------------------------------------------------|
F|-----------------------------------------------------------------------------|
C|-5/7-7-7-7--7-7--7/9-9-9-9--9-9--9/10-10-10-10--10-10--10/12-12-12-12--12-12-|
G|-5/7-7-7-7--7-7--7/9-9-9-9--9-9--9/10-10-10-10--10-10--10/12-12-12-12--12-12-|
C|-5/7-7-7-7--7-7--7/9-9-9-9--9-9--9/10-10-10-10--10-10--10/12-12-12-12--12-12-|
[ Tab from: http://www.guitartabs.cc/tabs/p/papa_roach/singular_indestructible_droid_tab.html ]
Chorus/Heavy Intro:
D|------------------------------------------------------------------------------
A|------------------------------------------------------------------------------
F|------------------------------------------------------------------------------
C|-0-2--5-2--2-5-4-5-7-5----0-2--5-2--2-5-4-5-7-5/9----0-2--5-2--2-5-4-5-7-5----
G|-0-2--5-2--2-5-4-5-7-5----0-2--5-2--2-5-4-5-7-5/9----0-2--5-2--2-5-4-5-7-5----
C|-0-2--5-2--2-5-4-5-7-5----0-2--5-2--2-5-4-5-7-5/9----0-2--5-2--2-5-4-5-7-5----

                            Verse(ALL PALM MUTED):
------------------------| D|-----------------------------------------------------
------------------------| A|-----------------------------------------------------
------------------------| F|-----------------------------------------------------
-0-2--5-2--0h2-2-x-x-x--| C|-----------------------------------------------------
-0-2--5-2--0h2-2-x-x-x--| G|-----------------------------------------------------
-0-2--5-2--0h2-2-x-x-x--| C|-2-2-2-2-2-2-2-2-2-2-2-2-2-2-2-2-5-5-5-5-5-5-5-5-5-5-

-----------------------------------------------------------------------------|
-----------------------------------------------------------------------------|
-----------------------------------------------------------------------------|
-----------------------------------------------------------------------------|
-----------------------------------------------------------------------------|
-5-5-5-5-5-5-2-2-2-2-2-2-2-2-2-2-2-2-2-2-2-2-3-3-3-3-3-3-3-3-3-3-3-3-3-3-3-3-|
                                                                              
Bridge:
D|----------------------------------------------|--------------------|
A|----------------------------------------------|--------------------|
F|-------------------------------------5--5-5-5-|--------------------|
C|-0h2-0h2-5-2-9--9-9-9----0h2-0h2-5-2-3--3-3-3-|-0-2--0-2--0-2--0-2-|
G|-0h2-0h2-5-2-9--9-9-9----0h2-0h2-5-2-3--3-3-3-|-0-2--0-2--0-2--0-2-|
C|-0h2-0h2-5-2-9--9-9-9----0h2-0h2-5-2-3--3-3-3-|-0-2--0-2--0-2--0-2-|

Ending                                          Play Last Half Of Ending:
D|---------------------------------------------|--------------------|
A|---------------------------------------------|--------------------|
F|---------------------------------------------|-7/9--7/9--7/9--7/9-|
C|-0-2--0-2--0-2--0-2--0-2--0-2--0-2--0-2--0-2-|-x-x--x-x--x-x--x-x-|
G|-0-2--0-2--0-2--0-2--0-2--0-2--0-2--0-2--0-2-|-5/7--5/7--5/7--5/7-|
C|-0-2--0-2--0-2--0-2--0-2--0-2--0-2--0-2--0-2-|--------------------|
Comments