Papa Roach - Singular Indestructible Droid Chords & Tabs

 

Singular Indestructible Droid Chords & Tabs

Papa Roach Chords & Tabs

Version: 1 Type: Bass Tab 0 ratings
1 star 2 stars 3 stars 4 stars 5 stars
comments

Singular Indestructible Droid Bass Tab

 band:papa roach
 song:singular industructable droid


can someone please tab this for me i have been dying to get the notes for
this tab i tried to tab it but its not worth submitting cause i have only
been playing for 2 months BUT I THINK THIS IS THE INTRO
[ Tab from: http://www.guitartabs.cc/tabs/p/papa_roach/singular_indestructible_droid_btab.html ]
---------------------------------5-5-5-5-5-5-5-5-5-5-5-5-5-4-4---
-2-2-2-2-2-2-2-2-2-2-2-2-2-5-5-5-------------------------------5-
-----------------------------------------------------------------
-----------------------------------------------------------------

-----------------------------------------------------------------
-2-2-2-2-2-2-2-2-2-2-2-2-2-5-5-5---------------------------------
---------------------------------3-3-3-3-3-3-3-3-3-3-3-3-3-2-2---
---------------------------------------------------------------5-    X2
FOR TUNING DROP "D" 1 WHOLE STEP
Comments