Papa Roach - She Loves Me Not Chords & Tabs

 

She Loves Me Not Chords & Tabs

Papa Roach Chords & Tabs

Version: 2 Type: Tab 1 rating
1 star 2 stars 3 stars 4 stars 5 stars
comments

She Loves Me Not Tab

   
Song: She Loves Me Not
Artist: Papa Roach
Album: Love Hate Tragedy

Dropped D Tuning (DADGBE)

h=hammer
p=pull

Other tabs are right about the into and verse and stuff...but this is the only part they are wrong about.
[ Tab from: http://www.guitartabs.cc/tabs/p/papa_roach/she_loves_me_not_tab_ver_2.html ]
This is the real CHORUS:
E|---------------------------------|---------------------------------|
B|---------------------------------|---------------------------------|
G|---------------------------------|---------------------------------|
D|--7--7---------------------------|--3--3---------------------------|
A|--7--7--7-7--------5-5h7p5p0-----|--3--3--7-7--------5-5h7p5p0-----|
D|--7--7------10-10----------------|--3--3------10-10----------------|

E----------------------------------|---------------------------------|
B----------------------------------|---------------------------------|
G----------------------------------|---------------------------------|
D--0--0----------------------------|--2--2---------------------------|
A--0--0--7-7--------5-5h7p5p0------|--2--2--7-7--------5-5h7p5p0-----|
D--0--0------10-10-----------------|--2--2------10-10----------------|

Contact me: My AIM Sn is ZeRoFo0L   email address is redsoxkm@telocity.com
Comments