Papa Roach - She Loves Me Not Chords & Tabs

 

She Loves Me Not Chords & Tabs

Papa Roach Chords & Tabs

Version: 11 Type: Tab 0 ratings
1 star 2 stars 3 stars 4 stars 5 stars
comments

She Loves Me Not Tab

verse
E--------------------------------------------|
B--------------------------------------------|
G--------------------------------------------|
D--7-7-7-3-3-3-2-2-2-3-3-3-x-x-x-3-3-x-x-x---|
A--7-7-7-3-3-3-2-2-2-3-3-3-x-x-x-3-3-x-x-x---|
E--5-5-5-1-1-1-0-0-0-1-1-1-x-x-x-1-1-x-x-x---|

E--------------------------------------------|
B--------------------------------------------|
G--------------------------------------------|
D--7-7-7-3-3-3-2-2-2-3-3-3-x-x-x-2-2-x-x-x---|
A--7-7-7-3-3-3-2-2-2-3-3-3-x-x-x-2-2-x-x-x---|
E--5-5-5-1-1-1-0-0-0-1-1-1-x-x-x-0-0-x-x-x---|

 E---------------------------------------------|
B----------------------------------------------|
G----------------------------------------------|
D--7-7-7-3-3-3-2-2-2-3-3-3-x-x-x-3-3-x-x-x-----|
A--7-7-7-3-3-3-2-2-2-3-3-3-x-x-x-3-3-x-x-x-----|
E--5-5-5-1-1-1-0-0-0-1-1-1-x-x-x-1-1-x-x-x-----|

E--------------------------------------------------------------------------|
B--------------------------------------------------------------------------|
G--------------------------------------------------------------------------|
D--7-7----------------3-3----------------2-2---------------3-3-------------|
A--7-7--7-3-3h5-5-3-3--7-3-3h5-5-2-2-7-3-3h5-5-3-3-7-3-3h5-----------------|
E--5-5----------------1-1----------------0-0----------------1-1------------|
chorus
E------------------------------------|
B------------------------------------|
G------------------------------------|
D--3-3-3-3-5-5-5-5-7-7-7-7-7-7-7-7---|
A--3-3-3-3-5-5-5-5-7-7-7-7-7-7-7-7---|
E--1-1-1-1-3-3-3-3-5-5-5-5-5-5-5-5---|

E------------------------------------|
B------------------------------------|
G------------------------------------|
D--3-3-3-3-5-5-5-5-7-7-7-7-7-7-7-7---|
A--3-3-3-3-5-5-5-5-7-7-7-7-7-7-7-7---|
E--1-1-1-1-3-3-3-3-5-5-5-5-5-5-5-5---|
verse
E--------------------------------------------------------|
B--------------------------------------------------------|
G--------------------------------------------------------|
D--3-3-3-5-5-5-7-7-7-3-3-3-2-2-2-3-3-3-x-x-x-3-3-x-x-x---|
A--3-3-3-5-5-5-7-7-7-3-3-3-2-2-2-3-3-3-x-x-x-3-3-x-x-x---|
E--1-1-1-3-3-3-5-5-5-1-1-1-0-0-0-1-1-1-x-x-x-1-1-x-x-x---|

E--------------------------------------------|
B--------------------------------------------|
G--------------------------------------------|
D--7-7-7-3-3-3-2-2-2-3-3-3-x-x-x-2-2-x-x-x---|
A--7-7-7-3-3-3-2-2-2-3-3-3-x-x-x-2-2-x-x-x---|
E--5-5-5-1-1-1-0-0-0-1-1-1-x-x-x-0-0-x-x-x---|


E--------------------------------------------|
B--------------------------------------------|
G--------------------------------------------|
D--7-7-7-3-3-3-2-2-2-3-3-3-x-x-x-3-3-x-x-x---|
A--7-7-7-3-3-3-2-2-2-3-3-3-x-x-x-3-3-x-x-x---|
E--5-5-5-1-1-1-0-0-0-1-1-1-x-x-x-1-1-x-x-x---|

E--------------------------------------------------------------------------|
B--------------------------------------------------------------------------|
G--------------------------------------------------------------------------|
D--7-7----------------3-3----------------2-2---------------3-3-------------|
A--7-7--7-3-3h5-5-3-3--7-3-3h5-5-2-2-7-3-3h5-5-3-3-7-3-3h5-----------------|
E--5-5----------------1-1----------------0-0----------------1-1------------|

Chorus
E------------------------------------|
B------------------------------------|
G------------------------------------|
D--3-3-3-3-5-5-5-5-7-7-7-7-7-7-7-7---|
A--3-3-3-3-5-5-5-5-7-7-7-7-7-7-7-7---|
E--1-1-1-1-3-3-3-3-5-5-5-5-5-5-5-5---|
[ Tab from: http://www.guitartabs.cc/tabs/p/papa_roach/she_loves_me_not_tab_ver_11.html ]
E------------------------------------|
B------------------------------------|
G------------------------------------|
D--3-3-3-3-5-5-5-5-7-7-7-7-7-7-7-7---|
A--3-3-3-3-5-5-5-5-7-7-7-7-7-7-7-7---|
E--1-1-1-1-3-3-3-3-5-5-5-5-5-5-5-5---|

E------------------------------------|
B------------------------------------|
G--5-5-5-5---------------5-------5---|
D--5-5-5-5-5-5-5-5-7-7-7-7-7-7-7-7---|
A--3-3-3-3-5-5-5-5-7-7-7-7-7-7-7-7---|
E----------3-3-3-3-5-5-5-5-5-5-5-5---|

E------------------------------------|
B------------------------------------|
G--5-5-5-5---------------5-------5---|
D--5-5-5-5-5-5-5-5-7-7-7-7-7-7-7-7---|
A--3-3-3-3-5-5-5-5-7-7-7-7-7-7-7-7---|
E----------3-3-3-3-5-5-5-5-5-5-5-5---|
verse III
E---------------------------------------------------------|
B---------------------------------------------------------|
G---------------------------------------------------------|
D--3-3-3-5-5-5-7-7-7-3-3-3-2-2-2-3-3-3-x-x-x-3-3-x-x-x----|
A--3-3-3-5-5-5-7-7-7-3-3-3-2-2-2-3-3-3-x-x-x-3-3-x-x-x----|
E--1-1-1-3-3-3-5-5-5-1-1-1-0-0-0-1-1-1-x-x-x-1-1-x-x-x----|
e---------------------------------------------------------|
B---------------------------------------------------------|
G---------------------------------------------------------|
D--7-7-7-3-3-3-2-2-2-3-3-3-x-x-x-2-2-x-x-x----------------|
A--7-7-7-3-3-3-2-2-2-3-3-3-x-x-x-2-2-x-x-x----------------|
E--5-5-5-1-1-1-0-0-0-1-1-1-x-x-x-0-0-x-x-x----------------|

E--------------------------------------------|
B--------------------------------------------|
G--------------------------------------------|
D--7-7-7-3-3-3-2-2-2-3-3-3-x-x-x-3-3-x-x-x---|
A--7-7-7-3-3-3-2-2-2-3-3-3-x-x-x-3-3-x-x-x---|
E--5-5-5-1-1-1-0-0-0-1-1-1-x-x-x-1-1-x-x-x---|

E--------------------------------------------------------------------------|
B--------------------------------------------------------------------------|
G--------------------------------------------------------------------------|
D--7-7----------------3-3----------------2-2---------------3-3-------------|
A--7-7--7-3-3h5-5-3-3--7-3-3h5-5-2-2-7-3-3h5-5-3-3-7-3-3h5-----------------|
E--5-5----------------1-1----------------0-0----------------1-1------------|
chorus
E------------------------------------|
B------------------------------------|
G------------------------------------|
D--3-3-3-3-5-5-5-5-7-7-7-7-7-7-7-7---|
A--3-3-3-3-5-5-5-5-7-7-7-7-7-7-7-7---|
E--1-1-1-1-3-3-3-3-5-5-5-5-5-5-5-5---|

E------------------------------------|
B------------------------------------|
G------------------------------------|
D--3-3-3-3-5-5-5-5-7-7-7-7-7-7-7-7---|
A--3-3-3-3-5-5-5-5-7-7-7-7-7-7-7-7---|
E--1-1-1-1-3-3-3-3-5-5-5-5-5-5-5-5---|


E------------------------------------|
B------------------------------------|
G------------------------------------|
D--3-3-3-3-5-5-5-5-7-7-7-7-7-7-7-7---|
A--3-3-3-3-5-5-5-5-7-7-7-7-7-7-7-7---|
E--1-1-1-1-3-3-3-3-5-5-5-5-5-5-5-5---|

solo
E-------------------------------------------------------------------------|
B--9-11-9--------------9-9-9-9-11-11-11-11-121212121212-------------------|
G---------10-8-7-8/10-----------------------------------10p9-10p9-10p9----|
D-------------------------------------------------------------------------|
A-------------------------------------------------------------------------|
E-------------------------------------------------------------------------|

E------------------------------------|
B------------------------------------|
G------------------------------------|
D--3-3-3-3-5-5-5-5-7-7-7-7-7-7-7-7---|
A--3-3-3-3-5-5-5-5-7-7-7-7-7-7-7-7---|
E--1-1-1-1-3-3-3-3-5-5-5-5-5-5-5-5---|
Comments