Papa Roach - She Loves Me Not Chords & Tabs

 

She Loves Me Not Chords & Tabs

Papa Roach Chords & Tabs

Version: 6 Type: Bass Tab

She Loves Me Not Bass Tab

   
Artist: Papa Roach
Album: lovehatetragedy
Song: "She Loves Me Not"
Tuninb: D A D G
Tabbed by: Cody Fuller, "rockerc"

Verse:
G|----------------------------------------------|
D|----------------------------------------------|
A|----------------------------------------------|
D|-7-7--7----3-3--3----2-2--2----5-5--5--5-5--5-|

G|----------------------------------------------|
D|----------------------------------------------|
A|----------------------------------------------|
D|-7-7--7----3-3--3----2-2--2----5-5--5--3-3--3-|

G|----------------------------------------------|
D|----------------------------------------------|
A|----------------------------------------------|
D|-7-7--7----3-3--3----2-2--2----5-5--5--5-5--5-|

Pre-Chorus
G|--------------------------------------------------------------------------------|
D|--------------------------------------------------------------------------------|
A|--------------------------------------------------------------------------------|
D|-7-7--7--7-7-7--7-7--3-3--3--3-3-3--3-3--2-2--2--2-2-2--2-2--5-5--5--5-5-5--5-5-|

Chorus
G|--------------------------------------------------|
D|--------------------------------------------------|
A|--------------------------------------------------| x2
D|-3-3-3--3--3-5-5-5--5--5-7-7-7-7--7--7-7-7--7--7--|

Pre-verse
G|----------------------------------|
D|----------------------------------|
A|----------------------------------|
D|-3-3--3----3--5-5--5----5--7-7--7-|

Verse 2
G|------------------------------------|
D|------------------------------------|
A|------------------------------------|
D|-3-3--3----2-2--2----5-5--5--5-5--5-|
[ Tab from: http://www.guitartabs.cc/tabs/p/papa_roach/she_loves_me_not_btab_ver_6.html ]
G|----------------------------------------------|
D|----------------------------------------------|
A|----------------------------------------------|
D|-7-7--7----3-3--3----2-2--2----5-5--5--3-3--3-|

G|----------------------------------------------|
D|----------------------------------------------|
A|----------------------------------------------|
D|-7-7--7----3-3--3----2-2--2----5-5--5--5-5--5-|

Repeat Pre-Chorus
Repeat Chorus

Bridge
G|---------------------------------------------------------|
D|---------------------------------------------------------|
A|---------------------------------------------------------| x2
D|-10-10-10--10--9--9-9-9--9----7-7--7----7----7-7--7---7--|

Repeat Pre-Chorus
Repeat Verse 2
Repeat Chorus

Chorus 3
G|----------------------------------------------------------------------------|
D|----------------------------------------------------------------------------|
A|----------------------------------------------------------------------------|
D|-3-3--3-3-3-3-3-3--5-5--5-5-5-5-5-5--7-7--7-7-7-7-7-7--7-7--7-7-7-7-7-7-7-7-|

G|------------------------------------------------------------|
D|------------------------------------------------------------|
A|------------------------------------------------------------|
D|-10-10-10--10--9--9-9-9--9----7--7-7-7---7---7--7-7-7---7---|

G|----------------------------------------------------------------|
D|----------------------------------------------------------------|
A|----------------------------------------------------------------|
D|-10------------9----------2-2-2-2-2-2-2-2-2-2-2-2-2-2-2-2-2-|

G|----------------------------------|
D|-------------------------------7--|(let ring)
A|----------------------------------|
D|-3----------5---------7-----------|