Papa Roach - She Loves Me Not Chords & Tabs

 

She Loves Me Not Chords & Tabs

Papa Roach Chords & Tabs

Version: 5 Type: Bass Tab 0 ratings
1 star 2 stars 3 stars 4 stars 5 stars
comments

She Loves Me Not Bass Tab

   
#----------------------------------PLEASE NOTE--------------------------------#
#This file is the author's own work and represents their interpretation of the#
#song. You may only use this file for private study, scholarship, or research.#
#-----------------------------------------------------------------------------#
#-- File created with Instab - http://www.pconline.com/~smcarey/instab.html --#
#-----------------------------------------------------------------------------#

Author/Artist: Papa Roach
Title: She Loves Me Not
Album: Love Hate Tragedy
Transcribed by: Sub Sonic Ghost
Email: godsmyleader@hotmail.com

Papa Roach is an extreamly talented group, and the 
come with a very original and emotional feel to ther 
music.  This song is a really cool song, and relativily 
easy to play.  Its defiently not perfect, but play with it 
and get the sound you need from it.  thanks..   (Ignore 
the top line, the tab program I use is for guitar)

Tuning:  Standard 5-string,   B,E,A,D,G

its a very smoothly transitioned song so just follow 
the tab as if you were reading a book.

Have fun. Peace and Luv.

------------------------------------------------------------------------------
------------------------------------------------------------------------------
------------------------------------------------------------------------------
------------------------------------------------------------------------------
--*55---*11-----------------*55---*11-----------------*55---*11---------------
--------------*33---*55-*55-------------*33---*55-311-------------------------
  Verse:  Just follow Bass Drum and guitar                                    

---------------|---------------------------------------|----------------------
---------------|---------------------------------------|----------------------
---------------|---------------------------------------|----------------------
---------------|---------------------------------------|----------------------
---------------|-*55-5-555-*11-1-111-------------------|----------0-3-3-3-----
--*33---*55-*55|---------------------*33-3-333-*5555555|-6-6-6--6-------------
                Pre Chorus: Just play something...       Chorus: Follow       

----------------------------------------------------------|-------------------
----------------------------------------------------------|-------------------
----------------------------------------------------------|-------------------
----------------------------------------------------------|-------------------
-3--0--5-5-5--5*55--*1-1-1--1--0--3-3-3--3--0--5-5-5--5*55|*11--1-*33---------
----------------------------------------------------------|-------------------
 guitar and Bass Drum                                       Post Chorus:***   

--|---------------------------------------------------------------------------
--|---------------------------------------------------------------------------
--|---------------------------------------------------------------------------
--|---------------------------------------------------------------------------
-3|*55---*11-----------------*55---*11-----------------*55---*11--------------
--|------------*33---*55-*55-------------*33---*55-311-------------*33--------
    2nd verse: Same as first verse :)                                         

--------|---------------------------------------|-----------------------------
--------|---------------------------------------|-----------------------------
--------|---------------------------------------|-----------------------------
--------|---------------------------------------|-----------------------------
--------|-*55-5-555-*11-1-111-------------------|-1-1-1--1--0--3-3-3--3-------
-*55-*55|---------------------*33-3-333-*5555555|-----------------------------
            Pre Chorus: same as first.              Chorus: Nothing majorly   
[ Tab from: http://www.guitartabs.cc/tabs/p/papa_roach/she_loves_me_not_btab_ver_5.html ]
--------------------------------------------------------|---------------------
--------------------------------------------------------|---------------------
--------------------------------------------------------|---------------------
--------------------------------------------------------|---------------------
-0--5-5-5--5*555-*1-1-1--1--0--3-3-3--3--0--5-5-5--5*555|---------------------
--------------------------------------------------------|-6-6-6--6--3-3-3--3--
 different.                                              extended Chorus/     

-------------------------------------------------|--------------|-------------
-------------------------------------------------|--------------|-------------
-------------------------------------------------|--------------|-------------
-------------------------------------------------|--------------|-------------
-5-5-5--5--*55----------------------5-5-5--5--*55|-*11--1-*33--3|*55----------
----------------6-6-6--6--3-3-3--3---------------|--------------|-------------
 Breakdown: Follow the Rhythum                       Post Chorus  Rap Part:   

------------------------------------------------------------------------------
------------------------------------------------------------------------------
------------------------------------------------------------------------------
------------------------------------------------------------------------------
-*11-----------------*55---*11-----------------*55---*11----------------------
-------*33---*55**55-------------*33---*55-311-------------*33---*55***55-----
 Same as verse's :)                                                           

-----------------------------------------|------------------------------------
-----------------------------------------|------------------------------------
-----------------------------------------|------------------------------------
-----------------------------------------|------------------------------------
--*55-5-555-*11-1-111--------------------|--------0--3-3-3--*5-5-5--5-*555----
----------------------*33-3-333-*55-5-555|-6-6-6------------------------------
   Another Pre Chorus: same as others :)    Chorus: Same as first with a      

--------------------------------------|---------------------------------------
--------------------------------------|---------------------------------------
--------------------------------------|---------------------------------------
--------------------------------------|---------------------------------------
-1-1-1--0--*3-3-3--3--*5-5-5--5--*5555|-*1-1-1--11--*3-3-3--33--*5-5-5--55----
--------------------------------------|---------------------------------------
 cuple rythmic addins                   Chorus Build:  Ad on extra beat.      

-----------|------------------------------------------------------------------
-----------|------------------------------------------------------------------
-----------|------------------------------------------------------------------
-----------|------------------------------------------------------------------
-*5-5-5--55|----------------------*5-5-5--5--5--*5-5-5--5-3-------------------
-----------|-*6-6-6--6--*3-3-3--3---------------------------6-6-6--6--3-3-3---
             Extended Chorus/Breakdown: I'f your playing live, this is        

---|-------------------------------|--------------------------|-|-------------
---|-------------------------------|--------------------------|-|-------------
---|-------------------------------|--------------------------|-|-------------
---|-------------------------------|--------------------------|-|-------------
---|-------------------------------|--------------------5----5|-|-------------
--3|5-5-5-5-5-5-5-5-5-5-5-5-5-5-5-5|6-6-6--6--3-3-3--3--------|-|-------------
 emotional moment.  Build^ Heavy     Retardando, (Slow and hard, sustain)     


Thatís about it.  Its not perfect, so play with it.  Peace!!!
Comments