Papa Roach - She Loves Me Not Chords & Tabs

 

She Loves Me Not Chords & Tabs

Papa Roach Chords & Tabs

Version: 2 Type: Bass Tab 0 ratings
1 star 2 stars 3 stars 4 stars 5 stars
comments

She Loves Me Not Bass Tab

   
tuning:C,A,D,G 
 tobin plays this on a 5-string but you can play it on a 4-string if 
you retune the E string to a C
listen to cd for number of times to play it
verse
G--------------------------------- 
D---------------------------------
A---------------------------------
C-9-9-9--5-5-5--2-2-2--4-4-4-4-4-4
[ Tab from: http://www.guitartabs.cc/tabs/p/papa_roach/she_loves_me_not_btab_ver_2.html ]
chorus
G----------------------------------
D----------------------------------
A----------------------------------
C-5-5-5-5-5-7-7-7-7-7-9-9-9-9-9-9-9

G----------------------------------
D----------------------------------
A----------------------------------
C-9-9-9----------------------------  

G----------------------------------
D----------------------------------
A----------------------------------
C-5-5-5-7-7-7-9-9-9-9-9-9----------
Comments