Papa Roach - Scars(acoustic) Chords & Tabs

 

Scars(acoustic) Chords & Tabs

Papa Roach Chords & Tabs

Version: 1 Type: Tab 6 ratings
1 star 2 stars 3 stars 4 stars 5 stars
comments

Scars(acoustic) Tab

   
This is definately a great song and it's pretty simple, I like the acoustic version better than
the original.. but they're both played the same pretty much give or take a few things.

Tuning:
Db Ab Db Gb Bb Ee



Intro (strum each chord once)

I tear my - Care too much
|----------------------------------------|
|----------------------------------------|
|----------------7-----------------------|
|-10------5------7------3----------------|
|-10------5------5------3----------------|
|-10------5-------------3----------------|


And my scars - Just to Feel
|----------------------------------------|
|----------------------------------------|
|---------------7------------------------|
|-2------5------7------3-----------------|
|-3------5------5------3-----------------|
|-2--------------------3-----------------|




Verse one

|----------------------------------------------------|---.
|----------------------------------------------------|    . Play this twice
|------------------5-4-----------7-5----------9-7----| 
|--7-10-9--------2-----5------3------7------5-----9--| 
|--7------9------2------------3-------------5--------|
|--7-------------2------------3-------------5--------|



Chorus

|----------------------------------------------------------------------------------|
|-----------------------------------------------------------------------------------
|----------------------------------------------7-7-7-7-7-7-7-7---------------------|
|--10-10-10-10-10-10-10-10----5-5-5-5-5-5-5-5--7-7-7-7-7-7-7-7--3-3-3-3-3--5-5-5-5-|
|--10-10-10-10-10-10-10-10----5-5-5-5-5-5-5-5--5-5-5-5-5-5-5-5--3-3-3-3-3--5-5-5-5-|
|--10-10-10-10-10-10-10-10----5-5-5-5-5-5-5-5-------------------3-3-3-3-3--5-5-5-5-|


Verse Two

|----------------------------------------------------|---.
|----------------------------------------------------|    . play twice
|------------------5-4-----------7-5----------9-7----|
|--7-10-9--------2-----5------3------7------5-----9--|
|--7------9------2------------3-------------5--------|
|--7-------------2------------3-------------5--------|

Chorus
[ Tab from: http://www.guitartabs.cc/tabs/p/papa_roach/scarsacoustic_tab.html ]
|----------------------------------------------------------------------------------|
|-----------------------------------------------------------------------------------
|----------------------------------------------7-7-7-7-7-7-7-7---------------------|
|--10-10-10-10-10-10-10-10----5-5-5-5-5-5-5-5--7-7-7-7-7-7-7-7--3-3-3-3-3--5-5-5-5-|
|--10-10-10-10-10-10-10-10----5-5-5-5-5-5-5-5--5-5-5-5-5-5-5-5--3-3-3-3-3--5-5-5-5-|
|--10-10-10-10-10-10-10-10----5-5-5-5-5-5-5-5-------------------3-3-3-3-3--5-5-5-5-|


Verse three

|----------------------------------------------------|---.
|----------------------------------------------------|    . play twice
|------------------5-4-----------7-5----------9-7----|
|--7-10-9--------2-----5------3------7------5-----9--| 
|--7------9------2------------3-------------5--------|
|--7-------------2------------3-------------5--------|


Bridge 

|--------------------------------------------|
|--------------------------------------------|
|----------------7---------------------------|
|-10------5------7------3-----5-5------------|
|-10------5------5------3-----5-5------------|
|-10------5-------------3-----5-5------------|

|--------------------------------------------|
|--------------------------------------------|
|----------------7---------------------------|
|-10------5------7-X2---3-----5-5------------|
|-10-X2---5-X2---5------3-X2--5-5------------|
|-10------5-------------3-----5-5------------|

|--------------------------------------------|
|--------------------------------------------|
|--------------------------------------------|
|---------------------------(7)----3---------|
|-------------------(5)-x11-(5)-x4-3---------|
|-(10)-x11--(5)-x11----------------3---------|


Chorus

|----------------------------------------------------------------------------------|---
|----------------------------------------------------------------------------------|   \
|----------------------------------------------7-7-7-7-7-7-7-7---------------------|
|--10-10-10-10-10-10-10-10----5-5-5-5-5-5-5-5--7-7-7-7-7-7-7-7--3-3-3-3-3--5-5-5-5-|
|--10-10-10-10-10-10-10-10----5-5-5-5-5-5-5-5--5-5-5-5-5-5-5-5--3-3-3-3-3--5-5-5-5-|     \
|--10-10-10-10-10-10-10-10----5-5-5-5-5-5-5-5-------------------3-3-3-3-3--5-5-5-5-|

|------------------------------------------------|                                         > play twice
|---------------7--------------------------------|                                           
|---------------7-x8-----------------------------|
|---2-----5-----5-----3-----5------10------------|                                     /
|---3-x8--5-x8--------3-x4--5-x4---10--|
|---2-----------------3-----5------10------------| ------------------------------------/




Comments