Papa Roach - Scars Chords & Tabs

 

Scars Chords & Tabs

Papa Roach Chords & Tabs

Version: 4 Type: Tab 0 ratings
1 star 2 stars 3 stars 4 stars 5 stars
comments

Scars Tab

   
papa roach
Scars
Tuning: | D A D G B E |

tabbed by:caleb LaBerge



\"Intro\" | \"Bridge.02\"
e|-----------------|--------------------|
b|-----------------|--------------------|
g|---------6~------|---------6~---------|
d|-9~--4~--6~--2~--|-9~--4~--6~--2~-4-4-|
a|-9~--4~--4~--2~--|-9~--4~--4~--2~-4-4-|
d|-9~--4~------2~--|-9~--4~------2~-4-4-|

\"Verse\" | \"Bridge.01\"
e|-----------------------------------|
b|-----------------------------------|
g|-------------4-3-------6-4---6-4---| 2x
D|-6-6-9-8-6-1-1-1-4-2-2-2-6-4-4-4-8-|
A|-6-6-6-6-9-1-1-1-1-2-2-2-2-4-4-4-4-|
D|-6-6-6-6-6-1-1-1-1-2-2-2-2-4-4-4-4-|

\"Chorus\"
e|---------------------------------------------------------------------------------|
b|---------------------------------------------------------------------------------|
g|-----------------------------------------6-6-6-6-6-6-6-6-6-6---------------------|
D|-9-9-9-9-9-9-9-9-9-9-4-4-4-4-4-4-4-4-4-4-6-6-6-6-6-6-6-6-6-6-2-2-2-2-2-2-4-4-4-4-|
A|-9-9-9-9-9-9-9-9-9-9-4-4-4-4-4-4-4-4-4-4-4-4-4-4-4-4-4-4-4-4-2-2-2-2-2-2-4-4-4-4-|
D|-9-9-9-9-9-9-9-9-9-9-4-4-4-4-4-4-4-4-4-4-x-x-x-x-x-x-x-x-x-x-2-2-2-2-2-2-4-4-4-4-|

e|---------------------------------------------------------------------------------|
b|---------------------------------------------------------------------------------|
g|-----------------------------------------6-6-6-6-6-6-6-6-6-6---------------------|
D|-9-9-9-9-9-9-9-9-9-9-4-4-4-4-4-4-4-4-4-4-6-6-6-6-6-6-6-6-6-6-2-2-2-2-2-4-4-4-4-4-|
A|-9-9-9-9-9-9-9-9-9-9-4-4-4-4-4-4-4-4-4-4-4-4-4-4-4-4-4-4-4-4-2-2-2-2-2-4-4-4-4-4-|
D|-9-9-9-9-9-9-9-9-9-9-4-4-4-4-4-4-4-4-4-4-x-x-x-x-x-x-x-x-x-x-2-2-2-2-2-4-4-4-4-4-|


\"Verse\" | \"Bridge.01\"
e|-----------------------------------|
b|-----------------------------------|
g|---------------4-3-----6-4-----6-4-| 2x
D|-6-6-9-8-6-1-1-1-4-2-2-2-6-4-4-4-8-|
A|-6-6-6-6-6-1-1-1-1-2-2-2-2-4-4-4-4-|
D|-6-6-6-6-6-1-1-1-1-2-2-2-2-4-4-4-4-|


\"Chorus\"
e|---------------------------------------------------------------------------------|
b|---------------------------------------------------------------------------------|
g|-----------------------------------------6-6-6-6-6-6-6-6-6-6---------------------|
D|-9-9-9-9-9-9-9-9-9-9-4-4-4-4-4-4-4-4-4-4-6-6-6-6-6-6-6-6-6-6-2-2-2-2-2-2-4-4-4-4-|
A|-9-9-9-9-9-9-9-9-9-9-4-4-4-4-4-4-4-4-4-4-4-4-4-4-4-4-4-4-4-4-2-2-2-2-2-2-4-4-4-4-|
D|-9-9-9-9-9-9-9-9-9-9-4-4-4-4-4-4-4-4-4-4-x-x-x-x-x-x-x-x-x-x-2-2-2-2-2-2-4-4-4-4-|
[ Tab from: http://www.guitartabs.cc/tabs/p/papa_roach/scars_tab_ver_4.html ]
e|---------------------------------------------------------------------------------|
b|---------------------------------------------------------------------------------|
g|-----------------------------------------6-6-6-6-6-6-6-6-6-6---------------------|
D|-9-9-9-9-9-9-9-9-9-9-4-4-4-4-4-4-4-4-4-4-6-6-6-6-6-6-6-6-6-6-2-2-2-2-2-4-4-4-4-4-|
A|-9-9-9-9-9-9-9-9-9-9-4-4-4-4-4-4-4-4-4-4-4-4-4-4-4-4-4-4-4-4-2-2-2-2-2-4-4-4-4-4-|
D|-9-9-9-9-9-9-9-9-9-9-4-4-4-4-4-4-4-4-4-x-x-x-x-x-x-x-x-x-x-2-2-2-2-2-4-4-4-4-4-|


\"Verse\" | \"Bridge.01\"
e|-----------------------------------|
b|-----------------------------------|
g|---------------4-3-----6-4-----6-4-| 2x
D|-6-6-9-8-6-1-1-1-4-2-2-2-6-4-4-4-8-|
A|-6-6-6-6-6-1-1-1-1-2-2-2-2-4-4-4-4-|
D|-6-6-6-6-6-1-1-1-1-2-2-2-2-4-4-4-4-|


\"Intro\" | \"Bridge.02\"
e|-------------------|-------------------------|
b|-------------------|-------------------------|
g|---------6~--------|------------6-6----------|
d|-9~--4~--6~--2~-4-4|9-9---4-4---6-6----2-2--4|
a|-9~--4~--4~--2~-4-4|9-9---4-4---4-4----2-2--4|
d|-9~--4~------2~-4-4|9-9---4-4----------2-2--4|

\"Bridge.03\"
e|---------------------------------------------------------------|
b|---------------------------------------------------------------|
g|---------------------------------------------------------------|
d|---------------------------------------------------6-6-6-6-6-2-|
a|-----------------------------------------4-4-4-4-4-4-4-4-4-4-2-|
D|-9-9-9-9-9-9-9-9-9-9-4-4-4-4-4-4-4-4-4-4-x-x-x-x-x-x-x-x-x-x-2-|
   * * * * * * * * * * * * * * * * * * * * * * * * *

\"Chorus\"
e|---------------------------------------------------------------------------------|
b|---------------------------------------------------------------------------------|
g|-----------------------------------------6-6-6-6-6-6-6-6-6-6---------------------|
d|-9-9-9-9-9-9-9-9-9-9-4-4-4-4-4-4-4-4-4-4-6-6-6-6-6-6-6-6-6-6-2-2-2-2-2-2-4-4-4-4-|---
A|-9-9-9-9-9-9-9-9-9-9-4-4-4-4-4-4-4-4-4-4-4-4-4-4-4-4-4-4-4-2-2-2-2-2-2-4-4-4-4-|
D|-9-9-9-9-9-9-9-9-9-9-4-4-4-4-4-4-4-4-4-4-x-x-x-x-x-x-x-x-x-x-2-2-2-2-2-2-4-4-4-4-|
-                                                                                         3x
e|---------------------------------------------------------------------------------|
b|---------------------------------------------------------------------------------|
g|-----------------------------------------6-6-6-6-6-6-6-6-6-6---------------------|
d|-9-9-9-9-9-9-9-9-9-9-4-4-4-4-4-4-4-4-4-4-6-6-6-6-6-6-6-6-6-6-2-2-2-2-2-4-4-4-4-4-|---
A|-9-9-9-9-9-9-9-9-9-9-4-4-4-4-4-4-4-4-4-4-4-4-4-4-4-4-4-4-4-4-2-2-2-2-2-4-4-4-4-4
D|-9-9-9-9-9-9-9-9-9-9-4-4-4-4-4-4-4-4-4-4-x-x-x-x-x-x-x-x-x-x-2-2-2-2-2-4-4-4-4-4-|


\"End\"
e|---|
b|---|
g|---|
D|-9-|
A|-9-|
D|-9-|
Comments