Papa Roach - Scars Chords & Tabs

 

Scars Chords & Tabs

Papa Roach Chords & Tabs

Version: 2 Type: Bass Tab

Scars Bass Tab

   
Papa Roach
"Scars"
Tuning: Db Ab Db Gb
Tabbed by: Cody Fuller, "rockerc"
Copyright http://www.paparoachonline.com

Intro (play after Jacoby sings "I care too much")

|-----------------------------------------------------------------|
|-----------------------------------------------------------------|
|3-------------------------------5--------------------------------|
|----------------5-------------------------------3--------5-------|

Verses

|-----------------------------------------------------------|
|-----------------------------------------------------------|
|-----------------------------------------------------------|
|7--7-7--7-7--7-7---7-2--2-2--2-2--2-2---2-3--3-3--3-3--3-3-|

|-----------------------|
|-----------------------|
|-----------------5---7-|
|3-5--5-5--5-5--5-------|

|------------------------------------------------------------------------|
|---------------------------------------------------------5-7-7-5-5-5----|
|----------7---10-----------2--2-------------3------------------------7-5|
|7--7-7--7---7------2--2-2-------2---3--3-3-----3--5--5-5----------------|


Chorus
[ Tab from: http://www.guitartabs.cc/tabs/p/papa_roach/scars_btab_ver_2.html ]
|-----------------------------------------------|
|-----------------------------------------------|
|3--3-3--3-3--3-3-3-----------------------------|
|--------------------0--5--5-5--5-5--5-5-5-5--0-|

|-----------------------------------------------------|
|-----------------------------------------------------|
|5--5-5--5-5--5-5--5-5--------------------------------|
|-----------------------3-3-3-3-3-3-3-3-5--5--5-5-5-5-|

Repeat Verse
Repeat Chorus
Repeat Verse

Breakdown ("But you didn't understand")
|------------------------------------|
|------------------------------------|
|3---------------5-------------------|
|--------5----------------3---5--5---|
Bridge("I can't help you fix yourself")
|---5------------------------------------|
|--------5h7-------------5h-7------------|
|3--------------------------------5--5---|
|---------------5--5---------------------|

|----------------------------|
|----10-10-------------------|
|8----------8--10----5-7-5-0-|
|----------------------------|

|--------------------------------------------------------------|
|--------------------------------------------------------------|
|3-3-3-3-3-3-3-3-3-3-3-3-3-3-3-3-------------------------------|
|--------------------------------5-5-5-5-5-5-5-5-5-5-5-5-5-5-5-|

|--------------------------------|
|--------------------------------|
|5-5-5-5-5-5-5-5-5-5-5-5-5--5----|
|------------------------------3-|

Repeat Chorus 4 times
End on

|-
|-
|3
|-