Papa Roach - Scars Chords & Tabs

 

Scars Chords & Tabs

Papa Roach Chords & Tabs

Version: 1 Type: Bass Tab 0 ratings
1 star 2 stars 3 stars 4 stars 5 stars
comments

Scars Bass Tab

Band- Papa Roach
Song- Scars
Tuning- Drop D

Intro:
G------------------------------------|
D------------------------------------|
A------------------------------------|
E------2---------------2-------------|
B--0-------2---0---0-------2---0-2-2-|

Verse:
G--------------------------------------------------|
D--------------------------------------------------|
A--------------------------------------------------|
E--4--4--4--4--6--6--6--6--0--0--0--0--2--2--2--2--|
B--------------------------------------------------|

Chorus:
----------------------------------------------------------------------------------|
----------------------------------------------------------------------------------|
----------------------------------------------------------------------------------|
------------------2-2-2-2-2-2-2-2-------------------------------------------------|
--0-0-0-0-0-0-0-0-----------------2-2-2-2-2-2-2-2-0-0-0-0-0-0-0-0-0-0-0-0-0-0-0-0-|
[ Tab from: http://www.guitartabs.cc/tabs/p/papa_roach/scars_btab.html ]
G------------------------------------------------|
D------------------------------------------------|
A------------------------------------------------|
E2-2-2-2-2-2-2-2---------------------------------|
B----------------2-2-2-2-2-2-2-2-0-0-0-0-2-2-2-2-|

Verse II:
G------------------------------------------------------------------|
D--------------------------------------1-4-------------------------|
A------------------------------4-----------------------------------|
EČ-4-4-4-4---------0-0-0-0-2-2-----4-4-----------------7-6-2-2-2-2-|
B----------4-4-4-4---------------2---------2-2-2-4-4-4-------------|


Bridge:
G-------------------------------------------------------------------------------------------------|
D-------------------------------------------------------------------------------------------------|
A----------4----------------------4-4------------------------------------------4444444444444444---|
EČ-----2-------0--2-2--------2-2-------0--2-2------------------2222222222222222----------------0--|
B--0--------------------0-0--------------------0000000000000000-----------------------------------|

Order:
Intro x 1
Verse I x 2
Chorus x 1
Verse I x 2
Chorus x 1
Verse II x 1
Bridge x 1
Chorus x 2
Comments