Papa Roach - Revenge Chords & Tabs

 

Revenge Chords & Tabs

Papa Roach Chords & Tabs

Version: 2 Type: Tab 0 ratings
1 star 2 stars 3 stars 4 stars 5 stars
comments

Revenge Tab

Papa Roach
\"Revenge\"
 Dropped D Tuning


Intro/Chorus
Riff 1
E----------------------------------------------------------------------------------|
B----------------------------------------------------------------------------------|
G----------------------------------------------------------------------------------|
D----------------------------------------------------------------------------------|
A---9-9-----4---x-------10-10-----9---x-x-x-x--------------10-9---9-10-9--|
D---9-9-----4---x-------10-10-----9---x-x-x-x--------------10-9---9-10-9--|
                                                                                  \"Remember the...\"

Verses
Riff 2
E----------------------------------------------------------------------------------|
B----------------------------------------------------------------------------------|
G----------------------------------------------------------------------------------|
D----------------------------------------------------------------------------------|
A----9--7-9--5-9--4-5-----------------------------------------------------------|
D-9-------------------------------------------------------------------------------|
\"Remeber the girl, abused with forks knifes...\"

[ Tab from: http://www.guitartabs.cc/tabs/p/papa_roach/revenge_tab_ver_2.html ]
2:00 into the song...
Riff 3
E---------------------------------------------------------------------------------|
B---------------------------------------------------------------------------------|
G---------------------------------------------------------------------------------|
D---------------------------------------------------------------------------------|
A--10-9-x-9-x-9-x-9---10-10-12-12----10-9-x-9-x-9----------------------|
D--10-9-x-9-x-9-x-9---10-10-12-12----10-9-x-9-x-9----------------------|
       ^2 times....               ^then...         ^then 2 times after...


2:10 into the song...
Riff 4
E---------------------------------------------------------------------------------|
B----------12----------------------12-----------------------------12-12-12---|
G------9-------10-------9-7-9---------10--------------------------------------|
D---------------------------------------------------------------------------------|
A---------------------------------------------------------------------------------|
D---------------------------------------------------------------------------------|


2:40 into the song...
Riff 5
E---------------------------------------------------------------------------------|
B---------------------------------------------------------------------------------|
G---------------------------------------------------------------------------------|
D-----9--7-9--5-9--4-5--------------------------------------------------------|
A-9--9--7-9--5-9--4-5--------------------------------------------------------|
D-9------------------------------------------------------------------------------|


3:00 into the song...
Riff 6
E---------------------------------------------------------------------------------|
B---------------------------------------------------------------------------------|
G---------------------------------------------------------------------------------|
D--------------------9-7-9-7----------------------------------------------------|
A-9-9-9--7-7-7----9-7-9-7----10---------------------------------------------|
D-9-9-9--7-7-7-----------------10---------------------------------------------|


Song Structure:

Riff 1
Riff 2
Riff 1
Riff 2
Riff 1
Riff 3
Riff 4
Riff 5
Riff 6
Comments