Papa Roach - Orange Drive Palms Chords & Tabs

 

Orange Drive Palms Chords & Tabs

Papa Roach Chords & Tabs

Version: 2 Type: Tab 0 ratings
1 star 2 stars 3 stars 4 stars 5 stars
comments

Orange Drive Palms Tab

Band: Papa Roach
Song: Orange drive palms
Album: "Old friends from young years"
Tuning: Drop D  (DADGBE)
 
This song is from an unsigned cd made in 1997. It's a way badass album.
Here's one of the best songs off it...

 INTRO:
E-------------------
B-------------------
G---------------44--
D------5-4------44-- x4      
A--222------2---22--
D-------------------

CHORUS:                            X2
E----------------------------------------------------------------------------
B----------------------------------------------------------------------------
G--4------------------4-------------------------------------4----------------
D--4------------------4------------------4------------------4----------------
A--2--0--5--4--2--4---2--0--5--4--2--4---2--0--5--4--2--4---2--0--5--4--2--4-
D-----0--5--4--2--4------0--5--4--2--4---4--0--5--4--2--4------0--5--4--2--4-


VERSE:  " I Try... I Lie..."

E------------------------------
B------------------------------
G------------------------------          
D-------5-4--------44------44--X8         
A--222-------2222------22------
D------------------------------
 
CHORUS " Kick it with that rebel cat..." 


VERSE:
[ Tab from: http://www.guitartabs.cc/tabs/p/papa_roach/orange_drive_palms_tab_ver_2.html ]
E------------------------------                           
B------------------------------                           
G------------------------------                           
D-------5-4--------44------44--X8         then play this right   
A--222-------2222------22------           after the 2nd verse... 
D------------------------------                                 


E---------------------------------------
B---------------------------------------
G--4444-44-44---------5555-55-55--------
D--3333-33-33---------4444-44-44--------X4     
A--2222-22-22---------3333-33-33--------
D--------------9/3----------------10/3--

CHORUS 

Little drum and base solo...then... 

no distortion:                                     

E--------------------------------------------      
B--------------------------------------------      
G--------------------------------------------
D----4------44----44-------5------55----55---X4 
A--22---2222----22-------22---2222----22-----
D--------------------------------------------


Heavy distortion:  

E------------------------------
B------------------------------
G------------------------------     "Side could the, below be mine!!!"      
D-------5-4--------44------44--X8          
A--222-------2222------22------
D------------------------------
 
Chorus

Verse again

Chorus again... then... 

E------------------------------   ---------------------
B------------------------------   ---------------------
G------------------------------   ---------4----------- repeat alot 
D----4-5-4--------4-5-4-5------   --0--4-5---5--0-4-5--
A--2-------2----3---------3-2--   ---------------------
D------------------------------   ---------------------

END


Antwan
Comments