Papa Roach - Not Listening Chords & Tabs

 

Not Listening Chords & Tabs

Papa Roach Chords & Tabs

Version: 1 Type: Tab 0 ratings
1 star 2 stars 3 stars 4 stars 5 stars
comments

Not Listening Tab

   
Band- Papa Roach
Album- Gettieng Away With Murder
Song- Not Listening

Tuning |D# A# D# G# B E|

Intro
E |-----------------------------------------------------------------------------------|
B |-----------------------------------------------------------------------------------|
G#|---12\10---12---10/12---12\10---12---10/12---12\10---12---10/12---12\10-7-7-7-10-7-|
D#|-0--x--x-0--x-0--x--x-0--x--x-0--x-0--x--x-0--x--x-0--x-0--x--x-0--x--x-x-x-x--x-x-|
A#|-0-10\8--0-10-0--8/10-0-10\8--0-10-0--8/10-0-10\8--0-10-0--8/10-0-10\8--5-5-5--8-5-|
D#|-0-------0----0-------0-------0----0-------0-------0----0-------0------------------|

E |----------------------------------------------------------------------------------|
B |----------------------------------------------------------------------------------|
G#|---12\10---12---10/12---12\10---12---10/12---12\10---12---10/12---12\10-7-7-7-7-7-|
D#|-0--x--x-0--x-0--x--x-0--x--x-0--x-0--x--x-0--x--x-0--x-0--x--x-0--x--x-x-x-x-x-x-|
A#|-0-10\8--0-10-0--8/10-0-10\8--0-10-0--8/10-0-10\8--0-10-0--8/10-0-10\8--5-5-5-5-5-|
D#|-0-------0----0-------0-------0----0-------0-------0----0-------0-----------------|

E |-----------------------------------------------------------------------|
B |-----------------------------------------------------------------------|
G#|-7-7-7-7-7-7-7-7-------------------------------------------------------|
D#|-7-7-7-7-7-7-7-7-5-5-5-5-5-5-5-5-10-10-10-10-10-10-10-10-7-7-7-7-7-3-3-|
A#|-5-5-5-5-5-5-5-5-5-5-5-5-5-5-5-5--8--8--8--8--8--8--8--8-7-7-7-7-7-3-3-|
D#|-----------------5-5-5-5-5-5-5-5--8--8--8--8--8--8--8--8-7-7-7-7-7-3-3-|

E |-----------------------------------------------------------------------|
B |-----------------------------------------------------------------------|
G#|-7-7-7-7-7-7-7-7-------------------------------------------------------|
D#|-7-7-7-7-7-7-7-7-5-5-5-5-5-5-5-5-10-10-10-10-10-10-10-10-7-7-7-3-3-3-3-|
A#|-5-5-5-5-5-5-5-5-5-5-5-5-5-5-5-5--8--8--8--8--8--8--8--8-7-7-7-3-3-3-3-|
D#|-----------------5-5-5-5-5-5-5-5--8--8--8--8--8--8--8--8-7-7-7-3-3-3-3-|

Verse
E |----------------------------------------------------------------------------|
B |----------------------------------------------------------------------------|
G#|---12\10--12--10/12---12\10--12--10/12---12\10--12--10/12---12-10------10---|
D#|---x--x---x----x-x----x--x---x----x-x----x--x---x----x-x----x--x-------x----|
A#|-0-10\8-0-10-0-8/10-0-10\8-0-10-0-8/10-0-10\8-0-10-0-8/10-0-10\8-0-0-0-8----|
D#|-0------0----0------0------0----0------0------0----0------0------0-0-0------|

E |----------------------------------------------------------------------------|
B |----------------------------------------------------------------------------|
G#|---12\10--12--10/12---12\10-----10-10---12\10--12--10/12--12\10------10-----|
D#|---x--x---x----x-x----x--x-------x-x----x--x---x----x-x----x--x-------x-----|
A#|-0-10\8-0-10-0-8/10-0-10\8-0-0-0-8-8----10\8-0-10-0-8/10-0-10\8-0-0-0-8-----|
D#|-0------0----0------0------0-0-0------0------0----0------0------0-0-0-------|

E |----------------------------------------------------------------------------|
B |----------------------------------------------------------------------------|
G#|---12\10--12--10/12---12\10-----10-10---12\10--12--10/12---12/10--12--10/12-|
D#|---x--x---x----x-x----x--x-------x-x----x--x---x----x-x----x--x---x----x-x--|
A#|-0-10\8-0-10-0-8/10-0-10\8-0-0-0-8-8--0-10\8-0-10-0-8/10-0-10\8-0-10-0-8/10-|
D#|-0------0----0------0------0-0-0------0------0----0------0------0----0------|

Pre-Chorus
E |------------------------------------------------------------------------------------------------|
B |------------------------------------------------------------------------------------------------|
G#|---14-14-14-14-10-10-10-10-15-15-15-15-10-10-10-10-14-14-14-14-10-10-10-10/12-12-12-12-10-10-10-|
D#|----x--x--x--x--x--x--x--x--x--x--x--x--x--x--x-x--x--x--x--x--x--x--x--x--x--x--x--x--x--x--x--|
A#|-0-12-12-12-12--8--8--8--8-13-13-13-13--8--8--8-8--12-12-12-12-8--8--8--8-/10-10-10-10-8--8--8--|
D#|-0----------------------------------------------------------------------------------------------|
[ Tab from: http://www.guitartabs.cc/tabs/p/papa_roach/not_listening_tab.html ]
Chorus
E |-------------------------------------------------------------------------|
B |-------------------------------------------------------------------------|
G#|-7-7-7-7-7-7-7-7-5-5-5-5-5-5-5-5-----------------------------------------|
D#|-7-7-7-7-7-7-7-7-5-5-5-5-5-5-5-5-10-10-10-10-10-10-10-10-7-7-7-7-7-3-3---|
A#|-5-5-5-5-5-5-5-5-3-3-3-3-3-3-3-3-8--8--8--8--8--8--8--8--7-7-7-7-7-3-3---|
D#|---------------------------------8--8--8--8--8--8--8--8--7-7-7-7-7-3-3---|

E |-------------------------------------------------------------------------|
B |-------------------------------------------------------------------------|
G#|-7-7-7-7-7-7-7-7-5-5-5-5-5-5-5-5-----------------------------------------|
D#|-7-7-7-7-7-7-7-7-5-5-5-5-5-5-5-5-7-7-7-7-7-7-7-7-10-10-10-10-10-10-10-10-|
A#|-5-5-5-5-5-5-5-5-3-3-3-3-3-3-3-3-7-7-7-7-7-7-7-7--8--8--8--8--8--8--8--8-|
D#|---------------------------------7-7-7-7-7-7-7-7--8--8--8--8--8--8--8--8-|

Pos-Chorus.01
E |-----------------------------|
B |-----------------------------|
G#|-----10-9--------------------|
D#|-0-0--x-x-10--8-8-0-3-3-3-0~-|
A#|-0-0--8-7-10--8-8-0-3-3-3-0~-|
D#|-0-0------10--8-8-0-3-3-3-0~-|

Bridge
E |--------------------------------------------------------------|
B |--------------------------------------------------------------|
G#|-----10-9------------10\9---------10-9------------12-12-12-10-|
D#|-0-0--x-x--10--8-8-0--x-x-10--0-0--x-x--10--8-8-0--x--x--x--x-|
A#|-0-0--8-7---x--8-8-0--8\7--x--0-0--8-7---x--8-8-0-10-10-10--8-|
D#|-0-0-------10--8-8-0------10--0-0-------10--8-8-0-------------|

E |--------------------------------------------------------------|
B |--------------------------------------------------------------|
G#|-----10-9------------------------10-9------------12-12-12-10--|
D#|-0-0--x-x-0-10-0-10-0-10-12--0-0--x-x--10--8-8-0--x--x--x--x--|
A#|-0-0--8-7-0-10-0-10-0-10-12--0-0--8-7---x--8-8-0-10-10-10--8--|
D#|-0-0------0-10-0-10-0-10-12--0-0-------10--8-8-0--------------|

E |-------------------------------------------------------------------------------------------------|
B |-------------------------------------------------------------------------------------------------|
G#|-14-14-14-14-14-14-14-14-14-14-14-14-14-14-14-14-------------------------------------------------|
D#|-x--x--x--x--x--x--x--x--x--x--x--x--x--x--x--x--10-10-10-10-10-10-10-10-12-12-12-12-12-12-12-12-|
A#|-12-12-12-12-12-12-12-12-12-12-12-12-12-12-12-12--8--8--8--8--8--8--8--8-10-10-10-10-10-10-10-10-|
D#|--------------------------------------------------8--8--8--8--8--8--8--8-10-10-10-10-10-10-10-10-|

Last Chorus
gtr.02
E |-------------------------------------------------|
B |-------------------------------------------------|
G#|-14-14-14-14-14-14-14-14-17-17-17-17-17-17-17-17-|
D#|--x--x--x--x--x--x--x--x--x--x--x--x--x--x--x--x-|
A#|-12-12-12-12-12-12-12-12-15-15-15-15-15-15-15-15-|
D#|-------------------------------------------------|

E |-------------------------------------------------------------------------------------------------|
B |-------------------------------------------------------------------------------------------------|
G#|-14-14-14-14-14-14-14-14-17-17-17-17-17-17-17-17-21-21-21-21-21-21-21-21-22-22-22-22-22-22-22-22-|
D#|--x--x--x--x--x--x--x--x--x--x--x--x--x--x--x--x--x--x--x--x--x--x--x--x--x--x--x--x--x--x--x--x-|
A#|-12-12-12-12-12-12-12-12-15-15-15-15-15-15-15-15-19-19-19-19-19-19-19-19-20-20-20-20-20-20-20-20-|
D#|-------------------------------------------------------------------------------------------------|

Ending...
E |---------------------------|-----------------------------------|
B |---------------------------|-----------------------------------|
G#|-----------7-7-7-7-7-7-7-7-|-----------------------------------|
D#|-7-3-5-0-0-6-6-6-6-6-7-7-7-|-7-3-5-0-0-10-10-10-10-12-12-12-12-|
A#|-7-3-5-0-0-----------------|-7-3-5-0-0--8--8--8--8-10-10-10-10-|
D#|-7-3-5-0-0-----------------|-7-3-5-0-0--8--8--8--8-10-10-10-10-|

E |---------------------------|-----------------------------|
B |---------------------------|-----------------------------|
G#|-----------7-7-7-7-7-7-7-7-|-----------------------------|
D#|-7-3-5-0-0-6-6-6-6-6-7-7-7-|-7-3-5-0-0-13-13-13-10-10-10-|
A#|-7-3-5-0-0-----------------|-7-3-5-0-0-13-13-13--8--8--8-|
D#|-7-3-5-0-0-----------------|-7-3-5-0-0-13-13-13--8--8--8-|

End
E |------|---|
B |------|---|
G#|------|---|
D#|-0-0~-|-0-|
A#|-0-0~-|-0-|
D#|-0-0~-|-0-|
Comments