Papa Roach - Never Enough Chords & Tabs

 

Never Enough Chords & Tabs

Papa Roach Chords & Tabs

Version: 2 Type: Tab 0 ratings
1 star 2 stars 3 stars 4 stars 5 stars
comments

Never Enough Tab

Band- Papa Roach
Song- Never Enough
Album- Infest
Tuning- Drop D

---------------|--------------------------------------------------------------|
---------------|--------------------------------------------------------------|
---------------|--------------------------------------------------------------|
-0---6-----2---|-6----7--6----6----0---6---7-6-----6--------------------------|
-0---4-----2---|-4----4--4----4----0---4---4-4-----4--------------------------|
-0---6-----2---|-4----4--4----4----0---4---4-4-----4--------------------------|
 Intro and Fill  2nd Intro and Verse Pt.1

---------------------------------|---------------------------------------------|
---------------------------------|---------------------------------------------|
---------------------------------|---------------------------------------------|
-4-4-4-7-7-7-6-6-6-7-7-7-9-9-7-6-|-4-7-4-6-4-0-----4-7-4-6-7-6-0---------------|
---------------------------------|-4-7-4-6-4-0-----4-7-4-6-7-6-0---------------|
---------------------------------|-4-7-4-6-4-0-----4-7-4-6-7-6-0---------------|
 P.M.--(Verse Pt. 2)-----------------------------------------------------------|l  Chorus
[ Tab from: http://www.guitartabs.cc/tabs/p/papa_roach/never_enough_tab_ver_2.html ]
------------------------------------------------------------------------------|
------------------------------------------------------------------------------|
------------------------------------------------------------------------------|
-4-4-4-7-7-7-6-6-6-7-7-7-9-9-7-6----------------------------------------------|
-4-4-4-7-7-7-6-6-6-7-7-7-9-9-7-6----------------------------------------------|
-4-4-4-7-7-7-6-6-6-7-7-7-9-9-7-6----------------------------------------------|
 Heavy Part at End     Play 4 Times

------------------------------------------------------------------------------|
------------------------------------------------------------------------------|
------------------------------------------------------------------------------|
-11-11-11-11-11-11-11-11-11-11-11-11-11-11-11-11/-----------------------------|
-11-11-11-11-11-11-11-11-11-11-11-11-11-11-11-11/-----------------------------|
-11-11-11-11-11-11-11-11-11-11-11-11-11-11-11-11/-----------------------------|
 Ending

------------------------------------------------------------------------------|
------------------------------------------------------------------------------|
-----------------9-9-9-9-9-9-9-9----------------------------------------------|
-2-2-2-2-2-2-2-2-x-x-x-x-x-x-x-x----------------------------------------------|
-2-2-2-2-2-2-2-2-7-7-7-7-7-7-7-7----------------------------------------------|
-2-2-2-2-2-2-2-2--------------------------------------------------------------|
 Ending


ENJOY!!!!
Comments