Papa Roach - Never Enough Chords & Tabs

 

Never Enough Chords & Tabs

Papa Roach Chords & Tabs

Version: 1 Type: Tab 0 ratings
1 star 2 stars 3 stars 4 stars 5 stars
comments

Never Enough Tab

   
Artist: Papa Roach
Album: Infest
Song Title (Track): Never Enough (Track 9)

Standard E Tuning
________________________________________________________________________________

Intro (Guitar 1)
E---------------|
B---------------|
G---------------|
D---7-6-7-9-7\6-|
A-9-------------|
E---------------|
Play 4 Times

Intro - Background (Guitar 2)
E-------|
B-------|
G-------|
D-2-----|
A-2-7-5-|
E-0-----|
Play Each Time After The Music Above Is Complete

Intro 2nd Half
E-2-5-4-5-7-5\4-|
B---------------|
G---------------|
D---------------|
A---------------|
E---------------|
Play 4 Times
________________________________________________________________________________


Verse Riff

E-----------------|
B-----------------|
G-----------------|
D-4-4-x-4-X-4-3/4-|
A-4-4-x-4-X-4-3/4-|
E-2-2-X-2-X-2-1/2-|
Play 3 Times then straight to the music below
[ Tab from: http://www.guitartabs.cc/tabs/p/papa_roach/never_enough_tab.html ]
E------------------------|
B------------------------|
G------------------------|
D-4-4-x-4-X-4-3/4-4/9\5~-|
A-4-4-x-4-X-4-3/4-4/9\5~-|
E-2-2-X-2-X-2-1/2-2/7\3~-|

E----------|
B----------|
G----------|
D-XXXXXXXX-|
A-XXXXXXXX-|
E-XXXXXXXX-|

________________________________________________________________________________


Chorus
E-------------|
B-------------|
G-------------|
D-------------|
A-------------|
E-3h5-3h5-3\2-|

Bridge (Strum For 30 Seconds)
E----------|
B----------|
G----------|
D-XXXXXXXX-|
A-XXXXXXXX-|
E-XXXXXXXX-|

________________________________________________________________________________


Song Order

Intro - X 1
Intro - Background - X 1
Intro - X 1
Intro - Background - X 1
Intro - X 1
Intro - Background - X 1
Intro - X 1
Intro - Background - X 1
Intro 2nd Half - X 4 (With Strumming From The Verse Riff)
Verse Riff - X 2
Chorus - X 8
Verse Riff - X 2
Chorus - X 16
Intro - Background - X 4
Bridge - Strum for 30 Seconds
Intro - With Heavy Distortion - X 4
Chorus - X 8

End On
E---------|
B---------|
G---------|
D----7-4~-|
A-9~---4~-|
E------2~-|
Comments