Papa Roach - M-80 Chords & Tabs

 

M-80 Chords & Tabs

Papa Roach Chords & Tabs

Version: 1 Type: Tab 0 ratings
1 star 2 stars 3 stars 4 stars 5 stars
comments

M-80 Tab

Band- Papa Roach
Song- M-80

Tunning : Drop-D (DADGBE)

------------------------------------------------------------------------------|
------------------------------------------------------------------------------|
-10-10-10-10-10-10-10-10-10101010101010105-5-5-5-5-5-5-5-7-7-7-7-7-7-7-7------|
-8--8--8--8--8--8--8--8--7-7-7-7-7-7-7-7-3-3-3-3-3-3-3-3-5-5-5-5-5-5-5-5------|
-8--8--8--8--8--8--8--8--7-7-7-7-7-7-7-7-3-3-3-3-3-3-3-3-5-5-5-5-5-5-5-5------|
-8--8--8--8--8--8--8--8--7-7-7-7-7-7-7-7-3-3-3-3-3-3-3-3-5-5-5-5-5-5-5-5------|
 Intro (Similar to Chorus)^10s

------------------------------------------------------------------------------|
------------------------------------------------------------------------------|
-10-10-10-10-10-10-10-12-12-12-12-12-12-12-12---------------------------------|
-8--8--8--8--8--8--8--10-10-10-10-10-10-10-10---------------------------------|
-8--8--8--8--8--8--8--10-10-10-10-10-10-10-10---------------------------------|
-8--8--8--8--8--8--8--10-10-10-10-10-10-10-10---------------------------------|


------------------------------------------------------------------------------|
------------------------------------------------------------------------------|
---------------10---------------------10----------------10--------------------|
-0-0-12-0-10-0-x--10--0-12-0-0-10-0-0-x---0-0-12-0-10-0-x--10--0-12-0-0-10-10-|
-0-0-12-0-10-0-8--10--0-12-0-0-10-0-0-8---0-0-12-0-10-0-8--10--0-12-0-0-10-10-|
-0-0-12-0-10-0----10--0-12-0-0-10-0-0-----0-0-12-0-10-0----10--0-12-0-0-10-10-|
 Verse (Jerry plays this w/ all down stokes)

------------------------------------------------------------------------------|
------------------------------------------------------------------------------|
------------------------------------------------------------------------------|
-12-10------------------------------------------------------------------------|
-12-10------------------------------------------------------------------------|
-12-10------------------------------------------------------------------------|


------------------------------------------------------------------------------|
------------------------------------------------------------------------------|
-10-10-10-10-10-10-10-10-9-9-9-9-9-9-9-9-5-5-5-5-5-5-5-5-7-7-7-7-7-7-7-7------|
-8--8--8--8--8--8--8--8--7-7-7-7-7-7-7-7-3-3-3-3-3-3-3-3-5-5-5-5-5-5-5-5------|
-8--8--8--8--8--8--8--8--7-7-7-7-7-7-7-7-3-3-3-3-3-3-3-3-5-5-5-5-5-5-5-5------|
-8--8--8--8--8--8--8--8--7-7-7-7-7-7-7-7-3-3-3-3-3-3-3-3-5-5-5-5-5-5-5-5------|

[ Tab from: http://www.guitartabs.cc/tabs/p/papa_roach/m_80_tab.html ]
------------------------------------------------------------------------------|
------------------------------------------------------------------------------|
------------------------------------------------------------------------------|
-0-3p0-5-7-5-3--5--3--5-3-----------------------------------------------------|
-0-3p0-5-7-5-3--5--3--5-3-----------------------------------------------------|
-0-3p0-5-7-5-3--5--3--5-3-----------------------------------------------------|
 Bridge (BREAK IT!)

------------------------------------------------------------------------------|
------------------------------------------------------------------------------|
-10-10-10-10-10-10-1010-9-9-9-9-9-9-9-9-5-5-5-5-5-5-5-5-7-7-7-7-7-7-7-7-------|
-8--8--8--8--8--8--8--8-7-7-7-7-7-7-7-7-3-3-3-3-3-3-3-3-5-5-5-5-5-5-5-5-------|
-8--8--8--8--8--8--8--8-7-7-7-7-7-7-7-7-3-3-3-3-3-3-3-3-5-5-5-5-5-5-5-5-------|
-8--8--8--8--8--8--8--8-7-7-7-7-7-7-7-7-3-3-3-3-3-3-3-3-5-5-5-5-5-5-5-5-------|
 Last Chorus w/ Variation

------------------------------------------------------------------------------|
------------------------------------------------------------------------------|
-10-10-10-10-10-10-10-10-12-12-12-12-12-12-12-12-9-9-9-9-9-9-9-9-9-9-9-9-9-9--|
-8--8--8--8--8--8--8--8--10-10-10-10-10-10-10-10-7-7-7-7-7-7-7-7-7-7-7-7-7-7--|
-8--8--8--8--8--8--8--8--10-10-10-10-10-10-10-10-7-7-7-7-7-7-7-7-7-7-7-7-7-7--|
-8--8--8--8--8--8--8--8--10-10-10-10-10-10-10-10-7-7-7-7-7-7-7-7-7-7-7-7-7-7--|


------------------------------------------------------------------------------|
------------------------------------------------------------------------------|
-9-9-10-10-10-10-10-10-10-10-12-12-12-12-12-12-12-12--7--7--10-10-------------|
-7-7-8--8--8--8--8--8--8--8--10-10-10-10-10-10-10-10--7--7--10-10-------------|
-7-7-8--8--8--8--8--8--8--8--10-10-10-10-10-10-10-10--5--5--8--8--------------|
-7-7-8--8--8--8--8--8--8--8--10-10-10-10-10-10-10-10--0--0--8--8--------------|


------------------------------------------------------------------------------|
------------------------------------------------------------------------------|
-10-10-10-10-10-10-10-10-9-9-9-9-9-9-9-9-5-5-5-5-5-5-5-5-7-7-7-7-7-7-7-7-7-7--|
-8--8--8--8--8--8--8--8--7-7-7-7-7-7-7-7-3-3-3-3-3-3-3-3-5-5-5-5-5-5-5-5-5-5--|
-8--8--8--8--8--8--8--8--7-7-7-7-7-7-7-7-3-3-3-3-3-3-3-3-5-5-5-5-5-5-5-5-5-5--|
-8--8--8--8--8--8--8--8--7-7-7-7-7-7-7-7-3-3-3-3-3-3-3-3-5-5-5-5-5-5-5-5-5-5--|


-------------|-------------------------------------|--------------------------|
-------------|-------------------------------------|--------------------------|
-7-7-7-7-7-7-|-----------------10--------------10--|-----10-----10-10-10-10---|
-5-5-5-5-5-5-|-0--0--3-0-------x------12-10----x---|-----x------x--x--x--x----|
-5-5-5-5-5-5-|-0--0--3-0---0-0-8--0-0-12-10-0--8---|-0-0-8--0-0-8--8--8--8----|
-5-5-5-5-5-5-|-0--0--3-0---0-0----0-0-12-10-0------|-0-0----0-0---------------|
              Ending       . .    . .                Last Time
Comments