Papa Roach - Lovehatetragedy Chords & Tabs

 

Lovehatetragedy Chords & Tabs

Papa Roach Chords & Tabs

Version: 1 Type: Bass Tab 0 ratings
1 star 2 stars 3 stars 4 stars 5 stars
comments

Lovehatetragedy Bass Tab

Band- Papa Roach
Album- LoveHateTragedy
Song- LoveHateTragedy
Tuning- Standard

Intro
-------------------------------------------------------------------|
---------12-9-9-10------------12---9-8-9-11-9--------12-9-8-11-----|
10---10------------10-----10------------------10---10--------------|
---10------------------10-----------------------10-----------------|

Heavy Riff
------------------------|
------------------------|
------------------------|
77---77---33---55-------|

Verse
----------------------------|
----------------------------|
----------------------------|
777-7~-777-7~-333-3~-555-5~-|

Pre Chours
--------------|
--------------|
--------------|
7~-9~-10~-12~-|
[ Tab from: http://www.guitartabs.cc/tabs/p/papa_roach/lovehatetragedy_btab.html ]
Chours
------------------------------------------------------------------------------|
------------------------------------------------------------------------------|
------------------------------------------------------------------------------|
1010101010101010-777777777-66666666-99999999-12121212121212121212121212121212-|

you better run
------------------------------------------------------------|
------------------------------------------------------------|
------------------------------------------------------------|
7-9-7-9-7-9-7-9-7-5-7-5-7-5-7-5-5-3-5-3-5-3-5-3-2-0-2-------|

love~~hate~~tragedy
------------------------------------------------------|
---7/9--9---------10/12--12-h13-12---------14-12-9-7--|
10--------9---9-13-----------------12---12------------|
------------9-------------------------12--------------|
Comments