Papa Roach - Liquid Diet Chords & Tabs

 

Liquid Diet Chords & Tabs

Papa Roach Chords & Tabs

Version: 1 Type: Tab 0 ratings
1 star 2 stars 3 stars 4 stars 5 stars
comments

Liquid Diet Tab

          Band: Papa Roach
          Song: Liquid Diet
          Album: Old Friends From Young Years
          Transcribed By: Michael Jonathan
          Email: TheSpookyKidsFL@aol.com
          
          one of the best songs on Old Friends... next to Orange Drive Palms!
          
          -------------------|
          -------------------|
          -------------------|
          -------------------|
          -------------------|
          -7-7-7-0-0-6-6-0-0-|
          bass intro
          
          
          |-------------------------|
          |-------------------------|
          |---------7-----------5---|
          |-------7---7-------5---5-|
          |-0-7-0-------0-5-0-------|
          |-------------------------|
          1st verse
          
          
          |--------------------------------
          |--------------------------------
          |--------------------------------
          |-55-55-55-55-77-----------------
          |-55-55-55-55-77-----------------
          |--------------------------------
           riff 1               
                                                                         
          
          ----------------|-------|
          ----------------|-------|
          ----------------|-7-8-5-|
          -33-33-33-33-55-|-7-8-5-|
          -33-33-33-33-55-|-5-6-3-|
          ----------------|-------|
           riff 1 cont.   2nd verse
[ Tab from: http://www.guitartabs.cc/tabs/p/papa_roach/liquid_diet_tab.html ]
Comments