Papa Roach - Liquid Diet Chords & Tabs

 

Liquid Diet Chords & Tabs

Papa Roach Chords & Tabs

Version: 1 Type: Bass Tab 0 ratings
1 star 2 stars 3 stars 4 stars 5 stars
comments

Liquid Diet Bass Tab

Band- Papa Roach
Song- Liquid Diet
Tuning- Drop D

Intro
|-------------------------------|
|--777------------555-----------|
|-----5O--77---------5---55-----|
|-----------5/--------3----33---|

Chorus x2
|-------------------------------------------|
|--777-----------------555------------------|
|-----50-0000--77---------5----------55-----|
|----------------555--------3-3333-----333--|

Pre-Verse x2
|--------------------------------------|
|--------------------------------------|
|--77-77-77-77-78---55-55-55-55-55--3--|
|--------------------------------------|

Verse
|---------------------------|
|---------------------------|
|--7---8-5---3-7---8-5---3--| x2
|---------------------------|

|--------------------------------------|
|--------------------------------------|
|--77-77-77-77-78---55-55-55-55-55--3--| x2
|--------------------------------------|

Chorus x2
Verse
Chorus x2

Riff x4
|--------------------|
|--------------------|
|--7-7-7-7-7--3-4-5--|
|--------------------|

Bridge
|-----------------------|
|-----------------9999--|
|--7777-6666-7777-------| x8
|-----------------------|

Riff x4
[ Tab from: http://www.guitartabs.cc/tabs/p/papa_roach/liquid_diet_btab.html ]
Interlude
|-------------------|
|-------------------|
|--7-7-7-75--7h8p7--| x4 
|-------------------|

|--------------------------------------||---------------------------------------|
|-----------------------------9-9-9-9--||---------------------------------------|
|--7-7-7-7--6-6-6-6--7-7-7-7-----------||--7-7-7-7--6-6-6-6--7-7-7-7--4-4-4-4---|
|--------------------------------------||---------------------------------------|

|--------------------------------------||---------------------------------------|
|-----------------------------9-9-9-9--||---------------------------------------|
|--7-7-7-7--6-6-6-6--7-7-7-7-----------||---7-7-7-7--6-6-6-6--4-4-4-4-4-4-4-4---|
|--------------------------------------||---------------------------------------|

|----------------------------------------|--------------------------------------|
|------------------------------99999999--|--------------------------------------|
|--77777777-66666666-77777777------------|--77777777-66666666-4444444444444444--| x2
|----------------------------------------|--------------------------------------|

Outro
|-------------|
|-------------|
|--7-7-7-7-7--|
|-------------|
Comments