Papa Roach - Last Resort Chords & Tabs

 

Last Resort Chords & Tabs

Papa Roach Chords & Tabs

Version: 9 Type: Tab

Last Resort Tab

   
Last Resort - Papa Roach
By damo

I believe the tabs before this arent correct.. they dont have the right sound.. I rewrote the tab in depth.

Ive seperated the tab up into bars of 4/4 to go with the beat.
Ive written the tab pretty wide, but when shown on the page it should fit...



^ - indicates the beat

Drop D Tuning:
(low to high) D-A-D-G-B-E




----------------------------------------------------

--- Intro ---


(no music)
Cut my life into pieces, this is my last resort.

   ^         ^         ^          ^          ^          ^         ^         ^
Gtr 1.
E ]-----------------------------------------|-----------------------------------------|
B ]-----------------------------------------|-----------------------------------------|
G ]-----------------------------------------|-----------------------------------------|
D ]9-9-----------------7-7------------------|5-5------------------4-4-------7-7-------|
A ]7-7-----------------5-5------------------|3-3------------------2-2-------5-5-------|
D ]9-9-----------------7-7------------------|5-5------------------4-4-------7-7-------|

    Suffocation,         no breathing,       dont give a fuck if I cut my arm bleeding.


   ^         ^         ^          ^          ^          ^         ^         ^
Gtr 2.
E ]-----------------------------------------|-----------------------------------------|
B ]-----------------------------------------|-----------------------------------------|
G ]-----------------------------------------|-----------------------------------------|
D ]----------9--------------------9---------|-----------9-------------------9---------|
A ]7-10-9-10---10-9-10----10-9-10---10-9-10-|---10-9-10---10-9-10---10-9-10---10-9-10-|
D ]--------------------12-------------------|10-------------------9-------------------|
Gtr 1.
E ]-----------------------------------------|-----------------------------------------|
B ]-----------------------------------------|-----------------------------------------|
G ]-----------------------------------------|-----------------------------------------|
D ]9-9-----------------7-7------------------|5-5------------------4-4-------7-7-------|
A ]7-7-----------------5-5------------------|3-3------------------2-2-------5-5-------|
D ]9-9-----------------7-7------------------|5-5------------------4-4-------7-7-------|

						This is my last resort,


   ^         ^         ^          ^          ^          ^         ^         ^
Gtr 2.
E ]-----------------------------------------|-----------------------------------------|
B ]-----------------------------------------|-----------------------------------------|
G ]-----------------------------------------|-----------------------------------------|
D ]----------9--------------------9---------|-----------9-------------------9---------|
A ]7-10-9-10---10-9-10----10-9-10---10-9-10-|---10-9-10---10-9-10---10-9-10---10-9-10-|
D ]--------------------12-------------------|10-------------------9-------------------|
Gtr 1.
E ]-----------------------------------------|-----------------------------------------|
B ]-----------------------------------------|-----------------------------------------|
G ]-----------------------------------------|-----------------------------------------|
D ]9-9-----------------7-7------------------|5-5------------------4-4-------7-7-------|
A ]7-7-----------------5-5------------------|3-3------------------2-2-------5-5-------|
D ]9-9-----------------7-7------------------|5-5------------------4-4-------7-7-------|



--- Verse ---

   ^         ^         ^          ^          ^          ^         ^         ^
Gtr 2. (palm mute)
E ]-----------------------------------------|-----------------------------------------|
B ]-----------------------------------------|-----------------------------------------|
G ]-----------------------------------------|-----------------------------------------|
D ]----------9--------------------9---------|-----------9-------------------9---------|
A ]7-10-9-10---10-9-10----10-9-10---10-9-10-|---10-9-10---10-9-10---10-9-10---10-9-10-|
D ]--------------------12-------------------|10-------------------9-------------------|
Gtr 1.
E ]-----------------------------------------|-----------------------------------------|
B ]-----------------------------------------|-----------------------------------------|
G ]-----------------------------------------|-----------------------------------------|
D ]9-9-----------------7-7------------------|5-5------------------4-4-------7-7-------|
A ]7-7-----------------5-5------------------|3-3------------------2-2-------5-5-------|
D ]9-9-----------------7-7------------------|5-5------------------4-4-------7-7-------|

Verse 1 words:
    Cut my life into pieces,             Ive reached my last resort, suffocation, no breathing
    Dont give a fuck if I cut my arm bleeding, Do you even care if I die bleeding?
    Would it be wrong, would it be right, if I took my tonight? chances are that it might,

Verse 2 words:
    I never realised I was spread too thin, till it was to late and I was empty within,
    Hungry feeding on chaos and living in sin, downward spiral where do I begin,
    It all started when I lost my mother. No love for myself and no love for another.

   ^         ^         ^          ^          ^          ^         ^       ^
Gtr 2. (palm mute)
E ]-----------------------------------------|-----------------------------------------|
B ]-----------------------------------------|-----------------------------------------|
G ]-----------------------------------------|-----------------------------------------|
D ]----------9--------------------9---------|-----------9---------9-9-9-9-12-12-12-12-|
A ]7-10-9-10---10-9-10----10-9-10---10-9-10-|---10-9-10---10-9-10-9-9-9-9-12-12-12-12-|
D ]--------------------12-------------------|10-------------------9-9-9-9-12-12-12-12-|
Gtr 1.
E ]-----------------------------------------|-----------------------------------------|
B ]-----------------------------------------|-----------------------------------------|
G ]-----------------------------------------|-----------------------------------------|
D ]9-9-----------------7-7------------------|5-5------------------9-9-9-9-12-12-12-12-|
A ]7-7-----------------5-5------------------|3-3------------------9-9-9-9-12-12-12-12-|
D ]9-9-----------------7-7------------------|5-5------------------9-9-9-9-12-12-12-12-|

Verse 1:
   Multilation out of sight,          and I'm contemplating suicide,         Cause I'm

Verse 2:
   Searching to find a love up on a higher level,finding nothing but questions and devils, Cause I'm

   (chorus)



--- Chorus ---

   ^           ^          ^           ^           ^           ^           ^           ^
Gtr 1 & 2.
E ]----------------------------------------------|------------------------------------------------|
B ]----------------------------------------------|------------------------------------------------|
G ]----------------------------------------------|11-11-11-11-12-12-12-12-14-14-14-14-11-11-11-11-|
D ]14-14-14-14-14-14-14-0-10-10-10-10-10-10-10-0-|X--X--X--X--X--X--X--X--X--X--X--X--X--X--X--X--|
A ]14-14-14-14-14-14-14-0-10-10-10-10-10-10-10-0-|9--9--9--9--10-10-10-10-12-12-12-12-9--9--9--9--|
D ]14-14-14-14-14-14-14-0-10-10-10-10-10-10-10-0-|0--0--0--0--0--0--0--0--0--0--0--0--0--0--0--0--|

   losing my sight,       losing my mind,         wish somebody would tell me im fine,

   ^           ^          ^           ^           ^           ^           ^           ^
Gtr 1 & 2.
E ]----------------------------------------------|------------------------------------------------|
B ]----------------------------------------------|------------------------------------------------|
G ]----------------------------------------------|11-11-11-11-12-12-12-12-14-14-14-14-14-14-14-14-|
D ]14-14-14-14-14-14-14-0-10-10-10-10-10-10-10-0-|X--X--X--X--X--X--X--X--X--X--X--X--X--X--X--X--|
A ]14-14-14-14-14-14-14-0-10-10-10-10-10-10-10-0-|9--9--9--9--10-10-10-10-12-12-12-12-12-12-12-12-|
D ]14-14-14-14-14-14-14-0-10-10-10-10-10-10-10-0-|0--0--0--0--0--0--0--0--0--0--0--0--0--0--0--0--|

   losing my sight,       losing my mind,         wish somebody would tell me im fine,


After 1st chorus: To Verse 2..
After 2nd chorus: Bridge
After 3rd Chorus: Bridge



--- Bridge ---

[ Tab from: http://www.guitartabs.cc/tabs/p/papa_roach/last_resort_tab_ver_9.html ]
   ^           ^           ^           ^            ^       ^       ^       ^
Gtr 1 & 2.
E ]------------------------------------------------|---------------------------------|
B ]------------------------------------------------|---------------------------------|
G ]------------------------------------------------|---------------------------------|
D ]14-14-14-14-14-14-14-12-10-10-10-10-10-10-10-12-|5-5-5-5-5-5-5-5-9-9-9-9-9-9-9-12-|
A ]14-14-14-14-14-14-14-12-10-10-10-10-10-10-10-12-|5-5-5-5-5-5-5-5-9-9-9-9-9-9-9-12-|
D ]14-14-14-14-14-14-14-12-10-10-10-10-10-10-10-12-|5-5-5-5-5-5-5-5-9-9-9-9-9-9-9-12-|

   Nothings alright,				    nothing is fine,


   ^           ^           ^           ^            ^       ^       ^       ^
Gtr 1 & 2.
E ]------------------------------------------------|--------------------------------|
B ]------------------------------------------------|--------------------------------|
G ]------------------------------------------------|--------------------------------|
D ]14-14-14-14-14-14-14-12-10-10-10-10-10-10-10-12-|5-5-5-5-5-5-5-5-9-9-9-9-9-9-9-9-|
A ]14-14-14-14-14-14-14-12-10-10-10-10-10-10-10-12-|5-5-5-5-5-5-5-5-9-9-9-9-9-9-9-9-|
D ]14-14-14-14-14-14-14-12-10-10-10-10-10-10-10-12-|5-5-5-5-5-5-5-5-9-9-9-9-9-9-9-9-|

                    Im running and Im crying,


####   On 2nd time through go to Coda.


   ^ * * * ^ * * * ^ * * * ^ * * * ^ *  *  *  ^  *  *  *  ^ *  *  *  ^  *  *  * 
Gtr 1 & 2.
E ]-------------------------------|---------------------------------------------|
B ]-------------------------------|---------------------------------------------|
G ]------------------7-7-7-7-7-7-7|--12-12-12-12-12-12-12---11-11-11-11-11-11---|
D ]--9-9-9-9-9-9-9---5-5-5-5-5-5-5|--10-10-10-10-10-10-10---9--9--9--9--9--9--12|
A ]--7-7-7-7-7-7-7---5-5-5-5-5-5-5|--10-10-10-10-10-10-10---9--9--9--9--9--9--12|
D ]--9-9-9-9-9-9-9---5-5-5-5-5-5-5|--10-10-10-10-10-10-10---9--9--9--9--9--9--12|

               Im crying...                          Im crying...


   ^ * * * ^ * * * ^ * * * ^ * * * ^ *  *  *  ^  *  *  *  ^ *  *  *  ^  *  *  * 
Gtr 1 & 2.
E ]-------------------------------|---------------------------------------------|
B ]-------------------------------|---------------------------------------------|
G ]------------------7-7-7-7-7-7-7|--12-12-12-12-12-12-12---11-11-11-11-11-11-11|
D ]--9-9-9-9-9-9-9---5-5-5-5-5-5-5|--10-10-10-10-10-10-10---9--9--9--9--9--9--9-|
A ]--7-7-7-7-7-7-7---5-5-5-5-5-5-5|--10-10-10-10-10-10-10---9--9--9--9--9--9--9-|
D ]--9-9-9-9-9-9-9---5-5-5-5-5-5-5|--10-10-10-10-10-10-10---9--9--9--9--9--9--9-|

               Im crying...                          Im crying...


   ^         ^         ^          ^          ^          ^         ^         ^
Gtr 1.
E ]-----------------------------------------|-----------------------------------------|
B ]-----------------------------------------|-----------------------------------------|
G ]-----------------------------------------|-----------------------------------------|
D ]9-9-----------------7-7------------------|5-5------------------4-4-------7-7-------|
A ]7-7-----------------5-5------------------|3-3------------------2-2-------5-5-------|
D ]9-9-----------------7-7------------------|5-5------------------4-4-------7-7-------|

     I                   Cant                  go                   on
     liv-                ing                  this                  way.


   ^         ^         ^          ^          ^          ^         ^         ^
Gtr 1.
E ]-----------------------------------------|-----------------------------------------|
B ]-----------------------------------------|-----------------------------------------|
G ]-----------------------------------------|-----------------------------------------|
D ]9-9-----------------7-7------------------|5-5------------------4-4-------7-7-------|
A ]7-7-----------------5-5------------------|3-3------------------2-2-------5-5-------|
D ]9-9-----------------7-7------------------|5-5------------------4-4-------7-7-------|

     Cut my life into pieces,                  this is my last resort
     Suffocation,        no breathing          dont give a fuck if i cut my arm bleeding,


   ^         ^         ^          ^          ^          ^         ^         ^
Gtr 2.
E ]-----------------------------------------|-----------------------------------------|
B ]-----------------------------------------|-----------------------------------------|
G ]-----------------------------------------|-----------------------------------------|
D ]----------9--------------------9---------|-----------9-------------------9---------|
A ]7-10-9-10---10-9-10----10-9-10---10-9-10-|---10-9-10---10-9-10---10-9-10---10-9-10-|
D ]--------------------12-------------------|10-------------------9-------------------|
Gtr 1.
E ]-----------------------------------------|-----------------------------------------|
B ]-----------------------------------------|-----------------------------------------|
G ]-----------------------------------------|-----------------------------------------|
D ]9-9-----------------7-7------------------|5-5------------------4-4-------7-7-------|
A ]7-7-----------------5-5------------------|3-3------------------2-2-------5-5-------|
D ]9-9-----------------7-7------------------|5-5------------------4-4-------7-7-------|

   Would it be wrong, would it be right,  if i took my life tonight? Chances are it might.
   Mutilation out of sight,              and Im contemplating suicide,      Cause I'm

     (chorus)





--- Coda ---

   ^           ^          ^           ^           ^           ^           ^           ^
Gtr 1 & 2.
E ]----------------------------------------------|------------------------------------------------|
B ]----------------------------------------------|------------------------------------------------|
G ]----------------------------------------------|11----------12----------14----------11----------|
D ]14-14-14-14-14-14-14-0-10-10-10-10-10-10-10-0-|X-----------X-----------X-----------X-----------|
A ]14-14-14-14-14-14-14-0-10-10-10-10-10-10-10-0-|9-----------10----------12----------9-----------|
D ]14-14-14-14-14-14-14-0-10-10-10-10-10-10-10-0-|0--0--0--0--0--0--0--0--0--0--0--0--0--0--0--0--|

Screamed:
   I                      Cant                    Go                      on,

   ^           ^          ^           ^           ^           ^           ^           ^
Gtr 1 & 2.
E ]----------------------------------------------|------------------------------------------------|
B ]----------------------------------------------|------------------------------------------------|
G ]----------------------------------------------|11----------12----------14----------12-14-12----|
D ]14-14-14-14-14-14-14-0-10-10-10-10-10-10-10-0-|X-----------X-----------X-----------X--X--X-----|
A ]14-14-14-14-14-14-14-0-10-10-10-10-10-10-10-0-|9-----------10----------12----------10-12-10----|
D ]14-14-14-14-14-14-14-0-10-10-10-10-10-10-10-0-|0--0--0--0--0--0--0--0--0--0--0--0--0--0--0--0--|

Screamed:
   Liv-                   ing                     this                    way!

                                                   2/4
   ^           ^          ^           ^            ^           ^           
Gtr 1 & 2.
E ]-----------------------------------------------|------------------------|
B ]-----------------------------------------------|------------------------|
G ]-----------------------------------------------|------------------------|
D ]14-14-14-14-14-14-14-0-10-10-10-10-10-10-10-10-|------------------------|
A ]14-14-14-14-14-14-14-0-10-10-10-10-10-10-10-10-|------------------------|
D ]14-14-14-14-14-14-14-0-10-10-10-10-10-10-10-10-|0--0--0--0--0--0--0--0--|


--- Outro ---

   4/4
   ^       ^       ^           ^          ^           ^           ^           ^
Gtr 1 & 2.
E ]--------------------------------------|------------------------------------------------|
B ]--------------------------------------|------------------------------------------------|
G ]4-4-4-4-4-4-4-4-12-12-12-12-12-12-12--|11-11-11-11-12-12-12-12-14-14-14-14-11-11-11----|
D ]2-2-2-2-2-2-2-2-10-10-10-10-10-10-10--|X--X--X--X--X--X--X--X--X--X--X--X--X--X--X-----|
A ]2-2-2-2-2-2-2-2-10-10-10-10-10-10-10--|9--9--9--9--10-10-10-10-12-12-12-12-9--9--9-----|
D ]2-2-2-2-2-2-2-2-10-10-10-10-10-10-10-0|0--0--0--0--0--0--0--0--0--0--0--0--0--0--0--0--|

                                          Can't go on.....
                                          Living this way.....
                                          Nothings al-

   ^           ^           ^                    
Gtr 1 & 2.
E ]--------------------------------------|
B ]--------------------------------------|
G ]--------------------------------------|
D ]14-14-14-14-14-14-14-14-14-14-14\2----|
A ]14-14-14-14-14-14-14-14-14-14-14\2----|
D ]14-14-14-14-14-14-14-14-14-14-14\2----|

                                  right!