Papa Roach - Last Resort Chords & Tabs

 

Last Resort Chords & Tabs

Papa Roach Chords & Tabs

Version: 8 Type: Tab 0 ratings
1 star 2 stars 3 stars 4 stars 5 stars
comments

Last Resort Tab

standard


Intro

......this is my last resort (0:05)
E ]-----7-7------5-5------3-3------2-2---5-5-------------|
A ]-----7-7------5-5------3-3------2-2---5-5-------------|
G ]-----9-9------7-7------5-5------4-4---7-7---  X2  ----|
D ]-----9-9------7-7------5-5------4-4---7-7-------------|
B ]-----7-7------5-5------3-3------2-2---7-7-------------|
E ]-----7-7------5-5------3-3------2-2---7-7-------------|


The cool solo part                                  (0:10)
E ]-------------------------------------------------------|
A ]-------------------------------------------------------|
G ]-----------4------------------------4------------------|
D ]-----5-4-5---5-4-5----------0-5-4-5---5-4-5------------|
B ]---7---------------------------------------------------|
E ]-------------------------------------------------------|
                                                                  X2
E ]-------------------------------------------------------|
A ]-------------------------------------------------------|
G ]-----------4------------------------4------------------|
D ]-----5-4-5---5-4-5------------5-4-5---5-4-5------------|
B ]---3------------------------2--------------------------|
E ]-------------------------------------------------------|


Same thing, but wit palm mute                       (0:21)
E ]-------------------------------------------------------|
A ]-------------------------------------------------------|
G ]-----------4------------------------4------------------|
D ]-----5-4-5---5-4-5----------0-5-4-5---5-4-5------------|
B ]---7---------------------------------------------------|
E ]-------------------------------------------------------|
    P.M..............................................
                                                               X4
E ]-------------------------------------------------------|
A ]-------------------------------------------------------|
G ]-----------4------------------------4------------------|
D ]-----5-4-5---5-4-5------------5-4-5---5-4-5------------|
B ]---3------------------------2--------------------------|
E ]-------------------------------------------------------|
    .................................................

chorus....cuz im losin my sight....               (0:42)
E ]----7-7-7--7--7-7----3-3-3--3--3-3------5------7------8-------10-------|
A ]----7-7-7--7--7-7----3-3-3--3--3-3------5------7------8-------10-------|
G ]----9-9-9--9--9-9----5-5-5--5--5-5------7------9------10------12-------|
D ]----9-9-9--9--9-9----5-5-5--5--5-5------7-x4---9-x4---10-x4---12-x4----|
B ]----7-7-7--7--7-7----3-3-3--3--3-3------5------7------8-------10-------|
E ]----7-7-7--7--7-7----3-3-3--3--3-3------5------7------8-------10-------|

E ]----7-7-7--7--7-7----3-3-3--3--3-3------5------7------8-------10-------|
A ]----7-7-7--7--7-7----3-3-3--3--3-3------5------7------8-------10-------|
G ]----9-9-9--9--9-9----5-5-5--5--5-5------7------9------10------12-------|
D ]----9-9-9--9--9-9----5-5-5--5--5-5------7-x4---9-x4---10-x4---12-x4----|
B ]----7-7-7--7--7-7----3-3-3--3--3-3------5------7------8-------10-------|
E ]----7-7-7--7--7-7----3-3-3--3--3-3------5------7------8-------10-------|


                                                     (0:53)
E ]-------------------------------------------------------|
A ]-------------------------------------------------------|
G ]-----------4------------------------4------------------|
D ]-----5-4-5---5-4-5----------0-5-4-5---5-4-5------------|
B ]---7---------------------------------------------------|
E ]-------------------------------------------------------|

E ]-------------------------------------------------------|
A ]-------------------------------------------------------|
G ]-----------4------------------------4------------------|
D ]-----5-4-5---5-4-5------------5-4-5---5-4-5------------|
B ]---3------------------------2--------------------------|
E ]-------------------------------------------------------|

                                                    (0:58)
E ]-------------------------------------------------------|
A ]-------------------------------------------------------|
G ]-----------4------------------------4------------------|
D ]-----5-4-5---5-4-5----------0-5-4-5---5-4-5------------|
B ]---7---------------------------------------------------|
E ]-------------------------------------------------------|
    P.M..............................................
                                                               X4
E ]-------------------------------------------------------|
A ]-------------------------------------------------------|
G ]-----------4------------------------4------------------|
D ]-----5-4-5---5-4-5------------5-4-5---5-4-5------------|
B ]---3------------------------2--------------------------|
E ]-------------------------------------------------------|
    .................................................

chorus....cuz im losin my sight                       (1:19)
E ]----7-7-7--7--7-7----3-3-3--3--3-3------5------7------8-------10-------|
A ]----7-7-7--7--7-7----3-3-3--3--3-3------5------7------8-------10-------|
G ]----9-9-9--9--9-9----5-5-5--5--5-5------7------9------10------12-------|
D ]----9-9-9--9--9-9----5-5-5--5--5-5------7 x4 --9 x4 --10 x4 --12 x4 ---|
B ]----7-7-7--7--7-7----3-3-3--3--3-3------5------7------8-------10-------|
E ]----7-7-7--7--7-7----3-3-3--3--3-3------5------7------8-------10-------|

E ]----7-7-7--7--7-7----3-3-3--3--3-3------5------7------8-------10-------|
A ]----7-7-7--7--7-7----3-3-3--3--3-3------5------7------8-------10-------|
G ]----9-9-9--9--9-9----5-5-5--5--5-5------7------9------10------12-------|
D ]----9-9-9--9--9-9----5-5-5--5--5-5------7 x4 --9 x4 --10 x4 --12 x4 ---|
B ]----7-7-7--7--7-7----3-3-3--3--3-3------5------7------8-------10-------|
E ]----7-7-7--7--7-7----3-3-3--3--3-3------5------7------8-------10-------|

      nothings alright...nothin is fine
E ]----7--7--7-7-7-7----3--3-3--3-3-3----3--3--3-3-3-3----2--2-2--2-2-2---|
A ]----7--7--7-7-7-7----3--3-3--3-3-3----3--3--3-3-3-3----2--2-2--2-2-2---|
G ]----9--9--9-9-9-9----5--5-5--5-5-5----3--3--3-3-3-3----4--4-4--4-4-4---|
D ]----9--9--9-9-9-9----5--5-5--5-5-5----5--5--5-5-5-5----4--4-4--4-4-4---|
B ]----7--7--7-7-7-7----3--3-3--3-3-3----5--5--5-5-5-5----2--2-2--2-2-2---|
E ]----7--7--7-7-7-7----3--3-3--3-3-3----3--3--3-3-5-5----2--2-2--2-2-2---|

E ]----7--7--7-7-7-7----3--3-3--3-3-3----3--3--3-3-3-3----2--2-2--2-2-2---|
A ]----7--7--7-7-7-7----3--3-3--3-3-3----3--3--3-3-3-3----2--2-2--2-2-2---|
G ]----9--9--9-9-9-9----5--5-5--5-5-5----3--3--3-3-3-3----4--4-4--4-4-4---|
D ]----9--9--9-9-9-9----5--5-5--5-5-5----5--5--5-5-5-5----4--4-4--4-4-4---|
B ]----7--7--7-7-7-7----3--3-3--3-3-3----5--5--5-5-5-5----2--2-2--2-2-2---|
E ]----7--7--7-7-7-7----3--3-3--3-3-3----3--3--3-3-5-5----2--2-2--2-2-2---|

[ Tab from: http://www.guitartabs.cc/tabs/p/papa_roach/last_resort_tab_ver_8.html ]
          ( # )<-- rest
E ]---#-7-7-7-7-7-7-7--#-3-3-3-3-3-3-3--#-3-3-3-3-3-3-3--#-2-2-2-2-2-2-2--|
A ]---#-7-7-7-7-7-7-7--#-3-3-3-3-3-3-3--#-3-3-3-3-3-3-3--#-2-2-2-2-2-2-2--|
G ]---#-9-9-9-9-9-9-9--#-3-3-3-3-3-3-3--#-5-5-5-5-5-5-5--#-4-4-4-4-4-4-4--|
D ]---#-9-9-9-9-9-9-9--#-5-5-5-5-5-5-5--#-5-5-5-5-5-5-5--#-4-4-4-4-4-4-4--|
B ]---#-7-7-7-7-7-7-7--#-5-5-5-5-5-5-5--#-3-3-3-3-3-3-3--#-2-2-2-2-2-2-2--|
E ]---#-7-7-7-7-7-7-7--#-3-3-3-3-3-3-3--#-3-3-3-3-3-3-3--#-2-2-2-2-2-2-2--|

E ]---#-7-7-7-7-7-7-7--#-3-3-3-3-3-3-3--#-3-3-3-3-3-3-3--#-2-2-2-2-2-2-2--|
A ]---#-7-7-7-7-7-7-7--#-3-3-3-3-3-3-3--#-3-3-3-3-3-3-3--#-2-2-2-2-2-2-2--|
G ]---#-9-9-9-9-9-9-9--#-3-3-3-3-3-3-3--#-5-5-5-5-5-5-5--#-4-4-4-4-4-4-4--|
D ]---#-9-9-9-9-9-9-9--#-5-5-5-5-5-5-5--#-5-5-5-5-5-5-5--#-4-4-4-4-4-4-4--|
B ]---#-7-7-7-7-7-7-7--#-5-5-5-5-5-5-5--#-3-3-3-3-3-3-3--#-2-2-2-2-2-2-2--|
E ]---#-7-7-7-7-7-7-7--#-3-3-3-3-3-3-3--#-3-3-3-3-3-3-3--#-2-2-2-2-2-2-2--|


i cant go on..livin this way...cut my life into peices...(1:52)
E ]-----7-7------5-5------3-3------2-2---5-5-------------|
A ]-----7-7------5-5------3-3------2-2---5-5-------------|
G ]-----9-9------7-7------5-5------4-4---7-7---  X4  ----|
D ]-----9-9------7-7------5-5------4-4---7-7-------------|
B ]-----7-7------5-5------3-3------2-2---7-7-------------|
E ]-----7-7------5-5------3-3------2-2---7-7-------------|

                                                 (2:12)
E ]-------------------------------------------------------|
A ]-------------------------------------------------------|
G ]-----------4------------------------4------------------|
D ]-----5-4-5---5-4-5----------0-5-4-5---5-4-5------------|
B ]---7---------------------------------------------------|
E ]-------------------------------------------------------|
                                                                  X2
E ]-------------------------------------------------------|
A ]-------------------------------------------------------|
G ]-----------4------------------------4------------------|
D ]-----5-4-5---5-4-5------------5-4-5---5-4-5------------|
B ]---3------------------------2--------------------------|
E ]-------------------------------------------------------|

chorus....cuz im losin my sight                       (2:23)
E ]----7-7-7--7--7-7----3-3-3--3--3-3------5------7------8-------10-------|
A ]----7-7-7--7--7-7----3-3-3--3--3-3------5------7------8-------10-------|
G ]----9-9-9--9--9-9----5-5-5--5--5-5------7------9------10------12-------|
D ]----9-9-9--9--9-9----5-5-5--5--5-5------7 x4 --9 x4 --10 x4 --12 x4 ---|
B ]----7-7-7--7--7-7----3-3-3--3--3-3------5------7------8-------10-------|
E ]----7-7-7--7--7-7----3-3-3--3--3-3------5------7------8-------10-------|

E ]----7-7-7--7--7-7----3-3-3--3--3-3------5------7------8-------10-------|
A ]----7-7-7--7--7-7----3-3-3--3--3-3------5------7------8-------10-------|
G ]----9-9-9--9--9-9----5-5-5--5--5-5------7------9------10------12-------|
D ]----9-9-9--9--9-9----5-5-5--5--5-5------7 x4 --9 x4 --10 x4 --12 x4 ---|
B ]----7-7-7--7--7-7----3-3-3--3--3-3------5------7------8-------10-------|
E ]----7-7-7--7--7-7----3-3-3--3--3-3------5------7------8-------10-------|

      nothings alright...nothin is fine
E ]----7--7--7-7-7-7----3--3-3--3-3-3----3--3--3-3-3-3----2--2-2--2-2-2---|
A ]----7--7--7-7-7-7----3--3-3--3-3-3----3--3--3-3-3-3----2--2-2--2-2-2---|
G ]----9--9--9-9-9-9----5--5-5--5-5-5----3--3--3-3-3-3----4--4-4--4-4-4---|
D ]----9--9--9-9-9-9----5--5-5--5-5-5----5--5--5-5-5-5----4--4-4--4-4-4---|
B ]----7--7--7-7-7-7----3--3-3--3-3-3----5--5--5-5-5-5----2--2-2--2-2-2---|
E ]----7--7--7-7-7-7----3--3-3--3-3-3----3--3--3-3-5-5----2--2-2--2-2-2---|

E ]----7--7--7-7-7-7----3--3-3--3-3-3----3--3--3-3-3-3----2--2-2--2-2-2---|
A ]----7--7--7-7-7-7----3--3-3--3-3-3----3--3--3-3-3-3----2--2-2--2-2-2---|
G ]----9--9--9-9-9-9----5--5-5--5-5-5----3--3--3-3-3-3----4--4-4--4-4-4---|
D ]----9--9--9-9-9-9----5--5-5--5-5-5----5--5--5-5-5-5----4--4-4--4-4-4---|
B ]----7--7--7-7-7-7----3--3-3--3-3-3----5--5--5-5-5-5----2--2-2--2-2-2---|
E ]----7--7--7-7-7-7----3--3-3--3-3-3----3--3--3-3-5-5----2--2-2--2-2-2---|


          ( # )<-- rest
E ]---#-7-7-7-7-7-7-7--#-3-3-3-3-3-3-3--#-3-3-3-3-3-3-3--#-2-2-2-2-2-2-2--|
A ]---#-7-7-7-7-7-7-7--#-3-3-3-3-3-3-3--#-3-3-3-3-3-3-3--#-2-2-2-2-2-2-2--|
G ]---#-9-9-9-9-9-9-9--#-3-3-3-3-3-3-3--#-5-5-5-5-5-5-5--#-4-4-4-4-4-4-4--|
D ]---#-9-9-9-9-9-9-9--#-5-5-5-5-5-5-5--#-5-5-5-5-5-5-5--#-4-4-4-4-4-4-4--|
B ]---#-7-7-7-7-7-7-7--#-5-5-5-5-5-5-5--#-3-3-3-3-3-3-3--#-2-2-2-2-2-2-2--|
E ]---#-7-7-7-7-7-7-7--#-3-3-3-3-3-3-3--#-3-3-3-3-3-3-3--#-2-2-2-2-2-2-2--|

E ]---#-7-7-7-7-7-7-7--#-3-3-3-3-3-3-3--#-3-3-3-3-3-3-3--#-2-2-2-2-2-2-2--|
A ]---#-7-7-7-7-7-7-7--#-3-3-3-3-3-3-3--#-3-3-3-3-3-3-3--#-2-2-2-2-2-2-2--|
G ]---#-9-9-9-9-9-9-9--#-3-3-3-3-3-3-3--#-5-5-5-5-5-5-5--#-4-4-4-4-4-4-4--|
D ]---#-9-9-9-9-9-9-9--#-5-5-5-5-5-5-5--#-5-5-5-5-5-5-5--#-4-4-4-4-4-4-4--|
B ]---#-7-7-7-7-7-7-7--#-5-5-5-5-5-5-5--#-3-3-3-3-3-3-3--#-2-2-2-2-2-2-2--|
E ]---#-7-7-7-7-7-7-7--#-3-3-3-3-3-3-3--#-3-3-3-3-3-3-3--#-2-2-2-2-2-2-2--|

E ]---7-7-7-7-7-7-7-7--3-3-3-3-3-3-3-3-[3-3-3-3-3-3-3-3--2--2--2-2-2-2--|
A ]---7-7-7-7-7-7-7-7--3-3-3-3-3-3-3-3-[3-3-3-3-3-3-3-3--2--2--2-2-2-2--|
G ]---9-9-9-9-9-9-9-9--3-3-3-3-3-3-3-3--5-5-5-5-5-5-5-5--4--4--4-4-4-4--|
D ]---9-9-9-9-9-9-9-9--5-5-5-5-5-5-5-5--5-5-5-5-5-5-5-5--4--4--4-4-4-4--|
B ]---7-7-7-7-7-7-7-7--5-5-5-5-5-5-5-5--3-3-3-3-3-3-3-3--2--2--2-2-2-2--|
E ]---7-7-7-7-7-7-7-7--3-3-3-3-3-3-3-3--3-3-3-3-3-3-3-3--2--2--2-2-2-2--|
                                       P.M..............

E ]---7--7--7-7-7-7----3--3-3--3-3-3----3--3--3-3-3-3----2--2-2--2-2-2--|
A ]---7--7--7-7-7-7----3--3-3--3-3-3----3--3--3-3-3-3----2--2-2--2-2-2--|
G ]---9--9--9-9-9-9----3--3-3--3-3-3----5--5--5-5-5-5----4--4-4--4-4-4--|
D ]---9--9--9-9-9-9----5--5-5--5-5-5----5--5--5-5-5-5----4--4-4--4-4-4--|
B ]---7--7--7-7-7-7----5--5-5--5-5-5----3--3--3-3-3-3----2--2-2--2-2-2--|
E ]---7--7--7-7-7-7----3--3-3--3-3-3----3--3--3-3-3-3----2--2-2--2-2-2--|

E ]---7--7--7-7-7-7----3--3-3--3-3-3----3--3--3-3-3-3----2--2-2--2-2-2--|
A ]---7--7--7-7-7-7----3--3-3--3-3-3----3--3--3-3-3-3----2--2-2--2-2-2--|
G ]---9--9--9-9-9-9----3--3-3--3-3-3----5--5--5-5-5-5----4--4-4--4-4-4--|
D ]---9--9--9-9-9-9----5--5-5--5-5-5----5--5--5-5-5-5----4--4-4--4-4-4--|
B ]---7--7--7-7-7-7----5--5-5--5-5-5----3--3--3-3-3-3----2--2-2--2-2-2--|
E ]---7--7--7-7-7-7----3--3-3--3-3-3----3--3--3-3-3-3----2--2-2--2-2-2--|

E ]---7--7--7-7-7-7----3--3-3--3-3-3----3--3--3-3-3-3----2--2-2--2-2-2--|
A ]---7--7--7-7-7-7----3--3-3--3-3-3----3--3--3-3-3-3----2--2-2--2-2-2--|
G ]---9--9--9-9-9-9----3--3-3--3-3-3----5--5--5-5-5-5----4--4-4--4-4-4--|
D ]---9--9--9-9-9-9----5--5-5--5-5-5----5--5--5-5-5-5----4--4-4--4-4-4--|
B ]---7--7--7-7-7-7----5--5-5--5-5-5----3--3--3-3-3-3----2--2-2--2-2-2--|
E ]---7--7--7-7-7-7----3--3-3--3-3-3----3--3--3-3-3-3----2--2-2--2-2-2--|

E ]---2-2-2-2-2-2-2-2-2-2-2-2-2-----------------|
A ]---2-2-2-2-2-2-2-2-2-2-2-2-2-----------------|
G ]---4-4-4-4-4-4-4-4-4-4-4-4-4-----------------|
D ]---4-4-4-4-4-4-4-4-4-4-4-4-4-----------------|
B ]---2-2-2-2-2-2-2-2-2-2-2-2-2-----------------|
E ]---2-2-2-2-2-2-2-2-2-2-2-2-2-----------------|

 couldnt find any good tabs so i wrote my own......joshi..enjoy
Comments