Papa Roach - Last Resort Chords & Tabs

 

Last Resort Chords & Tabs

Papa Roach Chords & Tabs

Version: 7 Type: Tab 0 ratings
1 star 2 stars 3 stars 4 stars 5 stars
comments

Last Resort Tab

   
This is my first tab and i noe i did a good job on this, well here it is...

Tuning: Standard (e, a, d, g, b, e)

Note: this tab deos not indicate timing just play along with the CD and u will get it.

also note: i do not have the chorus or pre-chorus for this but just look at another tab for it

e|-7-7----5-5------3-3------2-2------5-5-----------|
a|-9-9----7-7------5-5------4-4------7-7-----------|
d|-------------------------------------------------|
g|-------------------------------------------------|
b|-------------------------------------------------|
e|-------------------------------------------------|

e|-------------------------------------------------|
a|---7---------------------------------------------|
d|--------5---4---5-----------5---4---5------------|
g|----------------------4--------------------------|
b|-------------------------------------------------|
e|-------------------------------------------------|

e|-------------------------------------------------|
a|-------------------------------------------------|
d|----0------5-----4-----5-------5----4----5-------|
g|--------------------4----------------------------|
b|-------------------------------------------------|
e|-------------------------------------------------|

e|-------------------------------------------------|
a|-----3-------------------------------------------|
d|----------5---4---5----------5----4----5---------|
g|-----------------------4-------------------------|
b|-------------------------------------------------|
e|-------------------------------------------------|

e|-------------------------------------------------|
a|-----5-------------------------------------------|
d|----------5---4---5----------5----4----5---------|
g|-----------------------4-------------------------|
b|-------------------------------------------------|
e|-------------------------------------------------|

e|-------------------------------------------------|
a|---7---------------------------------------------|
d|--------5---4---5-----------5---4---5------------|
g|----------------------4--------------------------|
b|-------------------------------------------------|
e|-------------------------------------------------|

e|-------------------------------------------------|
a|-------------------------------------------------|
d|----0------5-----4-----5-------5----4----5-------|
g|--------------------4----------------------------|
b|-------------------------------------------------|
e|-------------------------------------------------|

e|-------------------------------------------------|
a|-----3-------------------------------------------|
d|----------5---4---5----------5----4----5---------|
g|-----------------------4-------------------------|
b|-------------------------------------------------|
e|-------------------------------------------------|

e|-------------------------------------------------|
a|-----5-------------------------------------------|
d|----------5---4---5----------5----4----5---------|
g|-----------------------4-------------------------|
b|-------------------------------------------------|
e|-------------------------------------------------|
-           palm mute this
e|-------------------------------------------------|
a|---7---------------------------------------------|
d|--------5---4---5-----------5---4---5------------|
g|----------------------4--------------------------|
b|-------------------------------------------------|
e|-------------------------------------------------|
             and this
e|-------------------------------------------------|
a|-------------------------------------------------|
d|----0------5-----4-----5-------5----4----5-------|
g|--------------------4----------------------------|
b|-------------------------------------------------|
e|-------------------------------------------------|
            and this
e|-------------------------------------------------|
a|-----3-------------------------------------------|
d|----------5---4---5----------5----4----5---------|
g|-----------------------4-------------------------|
b|-------------------------------------------------|
e|-------------------------------------------------|
           and this
e|-------------------------------------------------|
a|-----5-------------------------------------------|
d|----------5---4---5----------5----4----5---------|
g|-----------------------4-------------------------|
b|-------------------------------------------------|
e|-------------------------------------------------|
-         and this
e|-------------------------------------------------|
a|---7---------------------------------------------|
d|--------5---4---5-----------5---4---5------------|
g|----------------------4--------------------------|
b|-------------------------------------------------|
e|-------------------------------------------------|
            and this
e|-------------------------------------------------|
a|-------------------------------------------------|
d|----0------5-----4-----5-------5----4----5-------|
g|--------------------4----------------------------|
b|-------------------------------------------------|
e|-------------------------------------------------|
         and this
e|-------------------------------------------------|
a|-----3-------------------------------------------|
d|----------5---4---5----------5----4----5---------|
g|-----------------------4-------------------------|
b|-------------------------------------------------|
e|-------------------------------------------------|
            and this
e|-------------------------------------------------|
a|-----5-------------------------------------------|
d|----------5---4---5----------5----4----5---------|
g|-----------------------4-------------------------|
b|-------------------------------------------------|
e|-------------------------------------------------|
-         and this
e|-------------------------------------------------|
a|---7---------------------------------------------|
d|--------5---4---5-----------5---4---5------------|
g|----------------------4--------------------------|
b|-------------------------------------------------|
e|-------------------------------------------------|
            and this
e|-------------------------------------------------|
a|-------------------------------------------------|
d|----0------5-----4-----5-------5----4----5-------|
g|--------------------4----------------------------|
b|-------------------------------------------------|
e|-------------------------------------------------|
         and this
e|-------------------------------------------------|
a|-----3-------------------------------------------|
d|----------5---4---5----------5----4----5---------|
g|-----------------------4-------------------------|
b|-------------------------------------------------|
e|-------------------------------------------------|
            and this
e|-------------------------------------------------|
a|-----5-------------------------------------------|
d|----------5---4---5----------5----4----5---------|
g|-----------------------4-------------------------|
b|-------------------------------------------------|
e|-------------------------------------------------|
-         and this
e|-------------------------------------------------|
a|---7---------------------------------------------|
d|--------5---4---5-----------5---4---5------------|
g|----------------------4--------------------------|
b|-------------------------------------------------|
e|-------------------------------------------------|
            and this
e|-------------------------------------------------|
a|-------------------------------------------------|
d|----0------5-----4-----5-------5----4----5-------|
g|--------------------4----------------------------|
b|-------------------------------------------------|
e|-------------------------------------------------|
         and this
e|-------------------------------------------------|
a|-----3-------------------------------------------|
d|----------5---4---5----------5----4----5---------|
g|-----------------------4-------------------------|
b|-------------------------------------------------|
e|-------------------------------------------------|
  this is where the chorus and pre-chorus would b played...but like i said
i dont have it.... next riff down is what u play after chorus

e|-------------------------------------------------|
a|---7---------------------------------------------|
d|--------5---4---5-----------5---4---5------------|
g|----------------------4--------------------------|
b|-------------------------------------------------|
e|-------------------------------------------------|

e|-------------------------------------------------|
a|-------------------------------------------------|
d|----0------5-----4-----5-------5----4----5-------|
g|--------------------4----------------------------|
b|-------------------------------------------------|
e|-------------------------------------------------|
[ Tab from: http://www.guitartabs.cc/tabs/p/papa_roach/last_resort_tab_ver_7.html ]
e|-------------------------------------------------|
a|-----3-------------------------------------------|
d|----------5---4---5----------5----4----5---------|
g|-----------------------4-------------------------|
b|-------------------------------------------------|
e|-------------------------------------------------|

e|-------------------------------------------------|
a|-----5-------------------------------------------|
d|----------5---4---5----------5----4----5---------|
g|-----------------------4-------------------------|
b|-------------------------------------------------|
e|-------------------------------------------------|

-          palm mute this
e|-------------------------------------------------|
a|---7---------------------------------------------|
d|--------5---4---5-----------5---4---5------------|
g|----------------------4--------------------------|
b|-------------------------------------------------|
e|-------------------------------------------------|
             and this
e|-------------------------------------------------|
a|-------------------------------------------------|
d|----0------5-----4-----5-------5----4----5-------|
g|--------------------4----------------------------|
b|-------------------------------------------------|
e|-------------------------------------------------|
            and this
e|-------------------------------------------------|
a|-----3-------------------------------------------|
d|----------5---4---5----------5----4----5---------|
g|-----------------------4-------------------------|
b|-------------------------------------------------|
e|-------------------------------------------------|
           and this
e|-------------------------------------------------|
a|-----5-------------------------------------------|
d|----------5---4---5----------5----4----5---------|
g|-----------------------4-------------------------|
b|-------------------------------------------------|
e|-------------------------------------------------|
-         and this
e|-------------------------------------------------|
a|---7---------------------------------------------|
d|--------5---4---5-----------5---4---5------------|
g|----------------------4--------------------------|
b|-------------------------------------------------|
e|-------------------------------------------------|
            and this
e|-------------------------------------------------|
a|-------------------------------------------------|
d|----0------5-----4-----5-------5----4----5-------|
g|--------------------4----------------------------|
b|-------------------------------------------------|
e|-------------------------------------------------|
         and this
e|-------------------------------------------------|
a|-----3-------------------------------------------|
d|----------5---4---5----------5----4----5---------|
g|-----------------------4-------------------------|
b|-------------------------------------------------|
e|-------------------------------------------------|
            and this
e|-------------------------------------------------|
a|-----5-------------------------------------------|
d|----------5---4---5----------5----4----5---------|
g|-----------------------4-------------------------|
b|-------------------------------------------------|
e|-------------------------------------------------|
-         and this
e|-------------------------------------------------|
a|---7---------------------------------------------|
d|--------5---4---5-----------5---4---5------------|
g|----------------------4--------------------------|
b|-------------------------------------------------|
e|-------------------------------------------------|
            and this
e|-------------------------------------------------|
a|-------------------------------------------------|
d|----0------5-----4-----5-------5----4----5-------|
g|--------------------4----------------------------|
b|-------------------------------------------------|
e|-------------------------------------------------|
         and this
e|-------------------------------------------------|
a|-----3-------------------------------------------|
d|----------5---4---5----------5----4----5---------|
g|-----------------------4-------------------------|
b|-------------------------------------------------|
e|-------------------------------------------------|
            and this
e|-------------------------------------------------|
a|-----5-------------------------------------------|
d|----------5---4---5----------5----4----5---------|
g|-----------------------4-------------------------|
b|-------------------------------------------------|
e|-------------------------------------------------|
-         and this
e|-------------------------------------------------|
a|---7---------------------------------------------|
d|--------5---4---5-----------5---4---5------------|
g|----------------------4--------------------------|
b|-------------------------------------------------|
e|-------------------------------------------------|
            and this
e|-------------------------------------------------|
a|-------------------------------------------------|
d|----0------5-----4-----5-------5----4----5-------|
g|--------------------4----------------------------|
b|-------------------------------------------------|
e|-------------------------------------------------|
         and this
e|-------------------------------------------------|
a|-----3-------------------------------------------|
d|----------5---4---5----------5----4----5---------|
g|-----------------------4-------------------------|
b|-------------------------------------------------|
e|-------------------------------------------------|
   again here is the pre-chorus and chorus...look down for what plays after chorus

e|-7-7----5-5------3-3------2-2------5-5-----------|
a|-9-9----7-7------5-5------4-4------7-7-----------|
d|-------------------------------------------------|
g|-------------------------------------------------|
b|-------------------------------------------------|
e|-------------------------------------------------|

e|-7-7----5-5------3-3------2-2------5-5-----------|
a|-9-9----7-7------5-5------4-4------7-7-----------|
d|-------------------------------------------------|
g|-------------------------------------------------|
b|-------------------------------------------------|
e|-------------------------------------------------|

e|-7-7----5-5------3-3------2-2------5-5-----------|
a|-9-9----7-7------5-5------4-4------7-7-----------|
d|-------------------------------------------------|
g|-------------------------------------------------|
b|-------------------------------------------------|
e|-------------------------------------------------|

e|-7-7----5-5------3-3------2-2------5-5-----------|
a|-9-9----7-7------5-5------4-4------7-7-----------|
d|-------------------------------------------------|
g|-------------------------------------------------|
b|-------------------------------------------------|
e|-------------------------------------------------|
-
e|-------------------------------------------------|
a|---7---------------------------------------------|
d|--------5---4---5-----------5---4---5------------|
g|----------------------4--------------------------|
b|-------------------------------------------------|
e|-------------------------------------------------|

e|-------------------------------------------------|
a|-------------------------------------------------|
d|----0------5-----4-----5-------5----4----5-------|
g|--------------------4----------------------------|
b|-------------------------------------------------|
e|-------------------------------------------------|

e|-------------------------------------------------|
a|-----3-------------------------------------------|
d|----------5---4---5----------5----4----5---------|
g|-----------------------4-------------------------|
b|-------------------------------------------------|
e|-------------------------------------------------|

e|-------------------------------------------------|
a|-----5-------------------------------------------|
d|----------5---4---5----------5----4----5---------|
g|-----------------------4-------------------------|
b|-------------------------------------------------|
e|-------------------------------------------------|

e|-------------------------------------------------|
a|---7---------------------------------------------|
d|--------5---4---5-----------5---4---5------------|
g|----------------------4--------------------------|
b|-------------------------------------------------|
e|-------------------------------------------------|

e|-------------------------------------------------|
a|-------------------------------------------------|
d|----0------5-----4-----5-------5----4----5-------|
g|--------------------4----------------------------|
b|-------------------------------------------------|
e|-------------------------------------------------|

e|-------------------------------------------------|
a|-----3-------------------------------------------|
d|----------5---4---5----------5----4----5---------|
g|-----------------------4-------------------------|
b|-------------------------------------------------|
e|-------------------------------------------------|

here is where the chorus is again

and after the chorus they play the outro... for the outro just play the chorus


well that is about it...
just get your speed up and then u can play against the CD

any questions or comments? just e-mail me at sk8erboi051692@yahoo.com
Comments