Papa Roach - Last Resort Chords & Tabs

 

Last Resort Chords & Tabs

Papa Roach Chords & Tabs

Version: 6 Type: Tab 0 ratings
1 star 2 stars 3 stars 4 stars 5 stars
comments

Last Resort Tab

Papa roach- last resort

Intro:
Cut my life into pieces........
e|----------------------------------------------------------
A|----------------------------------------------------------
G|----------------------------------------------------------
D|---9-9----7-7----5-5----4-4----7-7------------------------
B|---7-7----5-5----3-3----2-2----5-5------------------------
E|---9-9----7-7----5-5----4-4----7-7------------------------

e|----------------------------------------------------------
A|----------------------------------------------------------
G|----------------------------------------------------------
D|------------9----------------------9---------------------9
B|--7/10-9-10---10-9-10------10-9-10---10-9-10-----10-9-10--
E|----------------------12----------------------10----------

  *p.m......................................................
e|----------------------------------------------------------
A|----------------------------------------------------------
G|----------------------------------------------------------
D|--------------------9-------------------------------------
B|--10-9-10---10-9-10----10-9-10----------------------------
E|----------9-----------------------------------------------
  ..............................

* only p.m on verse
 
 chorus:
e|----------------------------------------------------------
A|----------------------------------------------------------
G|----------------------------------------------------------
D|--9-9-9-9-12121212---1414141414141401010101010101010------
B|--9-9-9-9-12121212---1414141414141401010101010101010------
E|--9-9-9-9-12121212---1414141414141401010101010101010------


e|----------------------------------------------------------
A|----------------------------------------------------------
G|-11-11-11-11--12-12-12-12--14-14-14-14---11-11-11-11----
D|-x--x--x--x---x--x--x--x---x--x--x--x----x--x--x--x-----
B|-9--9--9--9---10-10-10-10--12-12-12-12---9--9--9--9-----
E|----------------------------------------------------------


Verse
Chorus

 Nothings alright...........
e|----------------------------------------------------------
A|----------------------------------------------------------
G|----------------------------------------------------------
D|-1414141414141401010101010101010\55555555/99999999--------
B|-1414141414141401010101010101010\55555555/99999999-x2-----
E|-1414141414141401010101010101010\55555555/99999999--------

[ Tab from: http://www.guitartabs.cc/tabs/p/papa_roach/last_resort_tab_ver_6.html ]
e|---------------------------------------------------------
A|---------------------------------------------------------
G|------------7777777---12121212121212---11111111111111----
D|-x9999999--x5555555--x10101010101010--x9-9-9-9-9-9-9-----
B|-x7777777--x5555555--x10101010101010--x9-9-9-9-9-9-9-x2--
E|-x9999999--x5555555--x10101010101010--x9-9-9-9-9-9-9-----

Intro x 3

chorus

outro:

(screamed) i cant go on living.......

e|----------------------------------------------------------
A|----------------------------------------------------------
G|--44444444/1212121212121212---11----12-----14----11-------
D|--22222222/1010101010101010---x-----x------x-----x--------
B|--22222222/1010101010101010---9-----10-----12----9--------
E|--22222222/1010101010101010------0-0---0-0---0-0----------

e|----------------------------------------------------------
A|----------------------------------------------------------
G|--44444444/1212121212121212---11----12-----14----12/14\12-
D|--22222222/1010101010101010---x-----x------x-----x--x--x--
B|--22222222/1010101010101010---9-----10-----12----10/12\10-
E|--22222222/1010101010101010------0-0---0-0---0-0----------

e|----------------------------------------------------------
A|----------------------------------------------------------
G|--44444444/1212121212121212-------------------------------
D|--22222222/1010101010101010-------------------------------
B|--22222222/1010101010101010-------------------------------
E|--22222222/1010101010101010---0-0-0-0-0-0-0-0-------------
                              p.m...............

e|----------------------------------------------------------
A|----------------------------------------------------------
G|--44444444/1212121212121212---11111111/12121212/14141414\-
D|--22222222/1010101010101010---x-x-x-x--x-x-x-x--x-x-x-x---
B|--22222222/1010101010101010---9-9-9-9-/10101010/12121212\-
E|--22222222/1010101010101010-------------------------------

e|----------------------------------------------------------
A|----------------------------------------------------------
G|-\11111111------------------------------------------------
D|-\x-x-x-x-----x2------------------------------------------
B|-\9-9-9-9-------------------------------------------------
E|----------------------------------------------------------


e|----------------------------------------------------------
A|----------------------------------------------------------
G|----------------------------------------------------------
D|--12-12-12-12-12-12-12-12-12-12\2-------------------------
B|--12-12-12-12-12-12-12-12-12-12\2-------------------------
E|--12-12-12-12-12-12-12-12-12-12\2-------------------------


This is pretty much 100% right,its hard counting the amount of strums in the chorus, 
but listen to the song and its easy. enjoy
Comments