Papa Roach - Last Resort Chords & Tabs

 

Last Resort Chords & Tabs

Papa Roach Chords & Tabs

Version: 4 Type: Tab 0 ratings
1 star 2 stars 3 stars 4 stars 5 stars
comments

Last Resort Tab

i am 100% that this is the right way to play  this song


Papa Roach
Last Resort
Tabbed by: KoRny Freak

Tuning = Drop D

Intro/Background verse riff (0:04)
e----------------------------------
b----------------------------------
g-9-9----7-7----5-5----4-4----7-7--
d-9-9----7-7----5-5----4-4—---7-7--
a-7-7----5-5----3-3—---2-2----5-5--
e-9-9----7-7----5-5----4-4----7-7--

Intro/verse riff - gtr 2 (played fast) (0:10)
e----------------------------------------------------------------------
b----------------------------------------------------------------------
g----------------------------------------------------------------------
d-----------9-----------------9------------------9---------9-----------
a-7-10-9-10--10-9-10--10-9-10--10-9-10---10-9-10---10-9-10---10-9-10---
e-------------------12-----------------10--------------9---------------

verse (palm mute)  (0:21)                                            x3
e----------------------------------------------------------------------
b----------------------------------------------------------------------
g----------------------------------------------------------------------
d-----------9-----------------9------------------9---------9-----------
a-7-10-9-10--10-9-10--10-9-10--10-9-10---10-9-10---10-9-10---10-9-10---
e-------------------12-----------------10--------------9---------------

e------------------------------------------------------------------------
b------------------------------------------------------------------------
g--------------------------------------------------------4-4-4-4/9-9-9-9-
d-----------9-----------------9------------------9-------4-4-4-4/9-9-9-9-
a-7-10-9-10--10-9-10--10-9-10--10-9-10---10-9-10---10-9--2-2-2-2/7-7-7-7-
e-------------------12-----------------10--------------------------------

chorus (0:41)
e--------------------------------------------------------------------
b--------------------------------------------------------------------
g-9-9-9-9\-5-5-5-5--11-11-11-11/-12-12-12-12/-14-14-14-14-\-9-9-9-9--
d-9-9-9-9\-5-5-5-5--x--x--x--x-/-x--x--x--x-/-x--x--x--x--\-x-x-x-x--
a-7 7 7 7\-3-3-3-3--9--9--9--9-/-10-10-10-10/-12-12-12-12-\-7-7-7-7--
e--------------------------------------------------------------------

then play intro once and then the verse again

Bridge (nothing's alright...nothing is fine) (1:29)
e----------------------------------------------------------
b----------------------------------------------------------
g-9-9-9-9-9--9-9--x-5--5--5-5-------------------4--4--4-4--
d-9-9-9-9-9--9-9--x-5--5--5-5-5-5-5-5-5--5-5--5-4--4--4-4--
a-7-7-7-7-7--7-7--x-3--3--3-3-5-5-5-5-5--5-5--5—2--2--2-2--
e-----------------------------5-5-5-5-5--5-5--5------------

interlude (I can’t go, on . . . ) (1:51)
e----------------------------------
b----------------------------------
g-9-9----7-7----5-5----4-4----7-7--
d-9-9----7-7----5-5----4-4—---7-7--
a-7-7----5-5----3-3—---2-2----5-5--
e-9-9----7-7----5-5----4-4----7-7--

Gtr 2 (2:11)                                                        x3
e----------------------------------------------------------------------
b----------------------------------------------------------------------
g----------------------------------------------------------------------
d-----------9-----------------9------------------9---------9-----------
a-7-10-9-10--10-9-10--10-9-10--10-9-10---10-9-10---10-9-10---10-9-10---
e-------------------12-----------------10--------------9---------------
[ Tab from: http://www.guitartabs.cc/tabs/p/papa_roach/last_resort_tab_ver_4.html ]
e------------------------------------------------------------------------
b------------------------------------------------------------------------
g--------------------------------------------------------4-4-4-4/9-9-9-9-
d-----------9-----------------9------------------9-------4-4-4-4/9-9-9-9-
a-7-10-9-10--10-9-10--10-9-10--10-9-10---10-9-10---10-9--2-2-2-2/7-7-7-7-
e-------------------12-----------------10--------------------------------

Chorus (2:22)
e--------------------------------------------------------------------
b--------------------------------------------------------------------
g-9-9-9-9\-5-5-5-5--11-11-11-11/-12-12-12-12/-14-14-14-14-\-9-9-9-9--
d-9-9-9-9\-5-5-5-5--x--x--x--x-/-x--x--x--x-/-x--x--x--x--\-x-x-x-x--
a-7 7 7 7\-3-3-3-3--9--9--9--9-/-10-10-10-10/-12-12-12-12-\-7-7-7-7--
e--------------------------------------------------------------------

e----------------------------------------------------------
b----------------------------------------------------------
g-9-9-9-9-9--9-9--x-5--5--5-5-------------------4--4--4-4--
d-9-9-9-9-9--9-9--x-5--5--5-5-5-5-5-5-5--5-5--5-4--4--4-4--
a-7-7-7-7-7--7-7--x-3--3--3-3-5-5-5-5-5--5-5--5—2--2--2-2--
e-----------------------------5-5-5-5-5--5-5--5------------

Outro (2:43)
e--------------------------------------------------------------------
b--------------------------------------------------------------------
g-9-9-9-9\-5-5-5-5--11---------/-12---------/-14----------\-9--------
d-9-9-9-9\-5-5-5-5--x----------/-x----------/-x-----------\-x--------
a-7 7 7 7\-3-3-3-3--9----------/-10---------/-12----------\-7--------
e---------------------0--0--0-------0--0--0-----0--0--0-------0-0-0--

e----------------------------------------------------------------------
b----------------------------------------------------------------------
g-9-9-9-9\-5-5-5-5--11---------/-12---------/-14----------\-12/14\12---
d-9-9-9-9\-5-5-5-5--x----------/-x----------/-x-----------\-x----------
a-7 7 7 7\-3-3-3-3--9----------/-10---------/-12----------\-10/12\10---
e---------------------0--0--0-------0--0--0-----0--0--0--------------0-

(2:54)              P.M. - -|
e-----------------------------
b-----------------------------
g-9-9-9-9\-5-5-5-5------------
d-9-9-9-9\-5-5-5-5--00000000--
a-7 7 7 7\-3-3-3-3--00000000--
e-------------------00000000—

(2:58)                                  (tremolo pick - - - - - - - - - - - 
|)
e-----------------------------------------------------------------------------
b---------------13--13--13-13-13-13-------------------------------------------
g---------------12--12--12-12-12-12-----11-------/-12------/-14-------\-9-----
d-2--2--2-2-2-2/10--10--10-10-10-10------x-------/-x-------/-x--------\-x—----
a-2--2--2-2-2-2/10--10--10-10-10-10------9-------/-10------/-12-------\-7-----
e-2--2--2-2-2-2/10--10--10-10-10-10-------------------------------------------

(3:09)
e--------------------------------------------------------------------
b--------------------------------------------------------------------
g-9-9-9-9\-5-5-5-5--11-11-11-11/-12-12-12-12/-14-14-14-14-\-9-9-9-9--
d-9-9-9-9\-5-5-5-5--x--x--x--x-/-x--x--x--x-/-x--x--x--x--\-x-x-x-x--
a-7 7 7 7\-3-3-3-3--9--9--9--9-/-10-10-10-10/-12-12-12-12-\-7-7-7-7--
e--------------------------------------------------------------------

e----------------------------------
b----------------------------------
g-9-9-9-9--9-9-9-9--9-9-9----------
d-9-9-9-9--9-9-9-9--9-9-9-2\-------
a-7-7-7-7--7-7-7-7--7-7-7-2\-------
e-------------------------2\-------

If you have any questions or comment please email me at 
silverchair_surfing_bird@hotmail.com
Comments