Papa Roach - Last Resort Chords & Tabs

 

Last Resort Chords & Tabs

Papa Roach Chords & Tabs

Version: 1 Type: Tab 2 ratings
1 star 2 stars 3 stars 4 stars 5 stars
comments

Last Resort Tab

   
#----------------------------------PLEASE NOTE---------------------------------#
#This file is the author's own work and represents their interpretation of the #
#song. You may only use this file for private study, scholarship, or research. #
#------------------------------------------------------------------------------#

Last Resort 

Papa Roach

by Brian S

Ignore Everything Else This is perfect :

Intro :

   E5      D5     C5     B5     D5   
e-----------------------------------------------------|
b-----------------------------------------------------|
g-----------------------------------------------------|
d--9--9----7--7---5--5---4--4---7--7------------------|
a--7--7----5--5---3--3---2--2---5--5------------------|
d--9--9----7--7---5--5---4--4---7--7------------------|

Verse Rif : (palm mute during verses)
e----------------------------------------------------------------|
b----------------------------------------------------------------|
g----------------------------------------------------------------|
d-----------9----------0----------9--------------------9---------|
a-7-10-9-10---10-9-10-----10-9-10---10-9-10----10-9-10---10-9-10-|
d-------------------------------------------10-------------------|

e-------------------------|
b-------------------------|
g-------------------------|
d------------9------------|
a----10-9-10---10-9-10----|
d-9-----------------------|

pre chorus chords :
   B5   D5
e----------------------|
b----------------------|
g--4----7~~------------|
d--4----7~~------------|
a--2----5~~------------|
d----------------------|
[ Tab from: http://www.guitartabs.cc/tabs/p/papa_roach/last_resort_tab.html ]
Chorus :
  E5           D5 C5
e-------------------------------------------------------------------|
b-------------------------------------------------------------------|
g-------------------------------11-11-11-12-12-12--14-14-14-11-11-11|
d-14-14-14-14--0--12-12-12-12---------------------------------------|
a-14-14-14-14--0--12-12-12-12---9--9--9--10-10-10--12-12-12-9--9--9-|
d-14-14-14-14--0--12-12-12-12---------------------------------------|
  				^^^^^^^^^^^^^^^^^^^^^^^^^^^^^^^^^^^
Chorus Rif Variation :        ^^^^^^^^^^^^^^^^^^^^^^^^^^^^^^^^^^^
(sometimes Horton variates  ^^^^^^^^^^^^^^^^^^^^^^^^^^^^^^^^^^^	
 this rif)			    
e-------------------------------------------------------|
b-------------------------------------------------------|
g-----11---------12------------14-----------11----------|
d-------------------------------------------------------|
a-----9----------10------------12-----------9-----------|
d--0-----0--0--0------0--0--0------0--0--0-----0--0--0--|

 
Bridge :
  E           D  C          G                 B
e-----------------------------------------------------|
b-----------------------------------------------------|
g-9-9-9-9-9-9-7--5-5-5-5-5--------------------4-4-4-4-|
d-9-9-9-9-9-9-7--5-5-5-5-5--5-5-5-5-5-5-5-5---4-4-4-4-|
a-7-7-7-7-7-7-5--3-3-3-3-3--5-5-5-5-5-5-5-5---2-2-2-2-|
d---------------------------5-5-5-5-5-5-5-5-----------|
  Nothing    all-right.     Nothing    is    fine.

  E              D  C          G                 B
e--------------------------------------------------------|
b--------------------------------------------------------|
g-9--9-9-9-9-9-9-7--5-5-5-5-5--------------------4-4-4-4-|
d----9-9-9-9-9-9-7--5-5-5-5-5--5-5-5-5-5-5-5-5---4-4-4-4-|
a-7--7-7-7-7-7-7-5--3-3-3-3-3--5-5-5-5-5-5-5-5---2-2-2-2-|
d------------------------------5-5-5-5-5-5-5-5-----------|
        I'm Cryin, I'm Cryin..........

Chords used near end :
   E5            C5       D5
e---------------------------------------------------------|
b-----------------------Pm***************-----------------|
g-----------------------------------------11-11-12-12-12--|
d--9--9--9---x---5--5--5--0-0-0-0-0-0-0-0-----------------|
a--7--7--7---x---3--3--3--0-0-0-0-0-0-0-0-9--9--10-10-10--|
d--9--9--9---x---5--5--5--0-0-0-0-0-0-0-0-----------------|
      					  Liiii-ving      

e-----------------------------------------------------|
b-----------------------------------------------------|
g---14-14-14---12-14-12----11-------------------------|
d-----------------------------------------------------|
a---12-12-12---10/12\10----9--------------------------|
d-----------------------------------------------------|
    this      way.
Comments