Papa Roach - Last Resort Chords & Tabs

 

Last Resort Chords & Tabs

Papa Roach Chords & Tabs

Version: 5 Type: Bass Tab 0 ratings
1 star 2 stars 3 stars 4 stars 5 stars
comments

Last Resort Bass Tab

Intro 
After "cut my life into pieces"
G-----------------------------------|
D-----------------------------------|
A-----------------------------------|(x3) 
E---9-9----7-7----5-5----4-4--7-7---| 

Verse 
G-----------------------------------|
D-----------------------------------|
A-----------------------------------|(x4) 
E---9-9----7-7----5-5----4-4--7-7---| 
chorus 
G--------------------------------------------------------|
D--------------------------------------------------------|
A--------------------------------------------------------|(x2)
E-1414141414141414-0-1010101010101010\55555555/99999999--| 

Verse 
G-----------------------------------|
D-----------------------------------|
A-----------------------------------|(x4) 
E---9-9----7-7----5-5----4-4--7-7---| 
[ Tab from: http://www.guitartabs.cc/tabs/p/papa_roach/last_resort_btab_ver_5.html ]
Chorus 
G--------------------------------------------------------|
D--------------------------------------------------------|
A--------------------------------------------------------|(x4)
E-1414141414141414-0-1010101010101010\55555555/99999999--|  

Start of bridge (after chorus) 
G-------------------------------------------------|
D-------------------------------------------------|
A-------------------------------------------------|(x2)
E-x9999999-x5555555--x1010101010101010-x999999999-|

(I..cant..go..on)
Verse 
G-----------------------------------|
D-----------------------------------|
A-----------------------------------|(x7) 
E---9-9----7-7----5-5----4-4--7-7---| 
 
chorus (for the rest of the song)
G--------------------------------------------------------|
D--------------------------------------------------------|
A--------------------------------------------------------|
E-1414141414141414-0-1010101010101010\55555555/99999999--|
Comments