Papa Roach - Last Resort Chords & Tabs

 

Last Resort Chords & Tabs

Papa Roach Chords & Tabs

Version: 2 Type: Bass Tab 0 ratings
1 star 2 stars 3 stars 4 stars 5 stars
comments

Last Resort Bass Tab

   
                           Papa Roach
                           Last Resort
                            Bass Tab
                          B,A,D,G Tuning
                      Transcribed by: Lynn Smith
                       Tabbed by: Jordy Smith

         Verse
G------------------------
D------------------------
A------------------------
B-5-5--3-3--1-1--0-0-3-3-

                  1st half of Chorus
G-----------------------------------------------------------------
D-----------------------------------------------------------------
A-----------------3-3-3-3-3-3-3-3---------------------------------
B-5-5-5-5-5-5-5-5-----------------3-3-3-3-3-3-3-3-3-3-3-3-3-3-3-3-

                   2nd half of Chorus
G-----------------------------------------------------------------
D-----------------------------------------------------------------
A-----------------3-3-3-3-3-3-3-3-----------------5-5-5-5-5-5-5-5-
B-5-5-5-5-5-5-5-5-----------------3-3-3-3-3-3-3-3-----------------

                       Post-Chorus 1
G-------------------------------------------------------------------------
D-------------------------------------------------------------------------
A-----------------3-3-3-3-3-3-3-3-----------------------------------------
B-5-5-5-5-5-5-5-5-----------------8-8-8-8-8-8-8-8-12-12-12-12-12-12-12-12-
[ Tab from: http://www.guitartabs.cc/tabs/p/papa_roach/last_resort_btab_ver_2.html ]
                        Post-Chorus 2
G-----------------------------------------------------------------
D-----------------------------------------------------------------
A-----------------------------------------------------------------
B-5-5-5-5-5-5-8-8-8-8-8-8-8-13-13-13-13-13-13-13-12-12-12-15-15-0-

                         Outro 1
G-----------------------------------------
D-----------------------------------------
A-7-7-7-7-7-7-3-3-3-3-3-3-----------------
B-------------------------3-3-3-3-3-3-3-3-

                         Outro 2
G---------------------------------------------------------
D---------------------------------------------------------
A-7-7-7-7-7-7-3-3-3-3-3-3---------------------------------
B-------------------------3-3-3-3-3-3-3-3-3-3-3-3-3-3-3-3-

                            Outro 3
G-----------------------------------------------------------------
D-----------------------------------------------------------------
A-7-7-7-7-7-7-7-7-3-3-3-3-3-3-3-3---------------------------------
B---------------------------------3-3-3-3-3-3-3-3-3-3-3-3-3-3-3-3-

       Outro 4
G-----------------------
D-----------------------
A-7-7-7-7-7-7-7-7-7-7-7-
B-----------------------

This is the 99.99% correct version of this song. I haven't added in
any timing but listen to the CD and you should be able to pick up on
it pretty fast. The third time you play the verse riff in the second 
verse, hit the 5-5- and when you hit the second 3, let it ring until 
you hit the 1-1. Really simple song. Any questions, comments, or
corrections, email me at: bass_kid_2000@yahoo.com
Comments