Papa Roach - Infest Chords & Tabs

 

Infest Chords & Tabs

Papa Roach Chords & Tabs

Version: 5 Type: Tab 0 ratings
1 star 2 stars 3 stars 4 stars 5 stars
comments

Infest Tab

Artist: Papa Roach
Song: Infest
Standard Tuning


Intro

--------------------------|
--------------------------|
-77---------------55------| X2
-77--77-33-77--22-55------|
-55--77-33-77--22-33------|
-----55-11-55--00---------|

RIFF 1  (MUTED)

--------------------------------|
--------------------------------|
--10-10-10---10---5--5--5---5---|  X4
-0--7--7--7-----0--2--2--2------|
--------------------------------|
--------------------------------|

Pre-Verse

--XXX-00------------|
--XXX-66------------|
--XXX-77------------|  X8
--------------------|
--------------------|
--------------------|

Verse  (with weird effect)

--XXX-0--XXX-0--XXX-0--XXX-0-XX-0-XX-0----|
--XXX-6--XXX-6--XXX-6--XXX-6-XX-5-XX-6----|
--XXX-7--XXX-7--XXX-7--XXX-7-XX-5-XX-7----|  X4
------------------------------------------|
------------------------------------------|
------------------------------------------|

Pre-Chorus

---------------------------------------|
---------------------------------------|
-2----45--2----45--2----45--2----454---|
-2----45--2----45--2----45--2----454---|
-0----23--0----23--0----23--0----232---|
---------------------------------------|

Chorus

---------------------------------------------------------------------|
---------------------------------------------------------------------|
-77------77------77------77------------------------------------------|
-77------77------77------77-------77------77------77------77---------| X2
-55-8888-55-8888-55-8888-55-8-7-8-77------77------77------77---------|
---------------------------------55-8888-55-8888-55-8888-55-8-7-8----|


Pre-Verse

--XXX-00------------|
--XXX-66------------|
--XXX-77------------|  X8
--------------------|
--------------------|
--------------------|

Verse  (with weird effect)

--XXX-0--XXX-0--XXX-0--XXX-0-XX-0-XX-0----|
--XXX-6--XXX-6--XXX-6--XXX-6-XX-5-XX-6----|
--XXX-7--XXX-7--XXX-7--XXX-7-XX-5-XX-7----|  X4
------------------------------------------|
------------------------------------------|
------------------------------------------|

Pre-Verse
[ Tab from: http://www.guitartabs.cc/tabs/p/papa_roach/infest_tab_ver_5.html ]
--XXX-00------------|
--XXX-66------------|
--XXX-77------------|  X8
--------------------|
--------------------|
--------------------|

Verse  (with weird effect)

--XXX-0--XXX-0--XXX-0--XXX-0-XX-0-XX-0----|
--XXX-6--XXX-6--XXX-6--XXX-6-XX-5-XX-6----|
--XXX-7--XXX-7--XXX-7--XXX-7-XX-5-XX-7----|  X4
------------------------------------------|
------------------------------------------|
------------------------------------------|

Pre-Chorus


---------------------------------------|
---------------------------------------|
-2----45--2----45--2----45--2----454---|
-2----45--2----45--2----45--2----454---|
-0----23--0----23--0----23--0----232---|
---------------------------------------|

Chorus

---------------------------------------------------------------------|
---------------------------------------------------------------------|
-77------77------77------77------------------------------------------|
-77------77------77------77-------77------77------77------77---------| X2
-55-8888-55-8888-55-8888-55-8-7-8-77------77------77------77---------|
---------------------------------55-8888-55-8888-55-8888-55-8-7-8----|


RIFF 1  (MUTED)

-----------------------------------|
-----------------------------------|
--10-10-10---10---5--5--5---5  X12-|
-0--7--7--7-----0--2--2--2---------|
-----------------------------------|
-----------------------------------|

Outro (same as Intro)

--------------------------|
--------------------------|
-77---------------55------| X4
-77--77-33-77--22-55------|
-55--77-33-77--22-33------|
-----55-11-55--00---------|

Chorus


---------------------------------------------------------------------|
---------------------------------------------------------------------|
-77------77------77------77------------------------------------------|
-77------77------77------77-------77------77------77------77---------| X2
-55-8888-55-8888-55-8888-55-8-7-8-77------77------77------77---------|
---------------------------------55-8888-55-8888-55-8888-55-8-7-8----|


------------------------------------|
------------------------------------|
-77------77------77------77---------|
-77------77------77------77---------|
-55-8888-55-8888-55-8888-55-8888----|
------------------------------------|


Please Write down in the comments if you know the effect,
                                    Thanks,
Comments