Papa Roach - Infest Chords & Tabs

 

Infest Chords & Tabs

Papa Roach Chords & Tabs

Version: 3 Type: Tab 0 ratings
1 star 2 stars 3 stars 4 stars 5 stars
comments

Infest Tab

   
Papa Roach  Infest.
Tabbed by Mack Crowe  mackdaddy248@hotmail.com.
  
Tuning: DADGBE (low to high)

Intro
e|---------------------|
b|---------------------|
g|-7--14--10--14--9--5-|
d|-7--14--10--14--9--5-|
a|-5--12--8---12--7--3-|
d|---------------------|

Interlude
e|---------------------|
b|---------------------|
g|-7-x-10-7------------|
d|------------7-x-10-7-|
a|---------------------|
d|---------------------|

Bridge
e|--------------------------------------------------|
b|--------------------------------------------------|
g|-----10-10--------10-10--------10-10--------10----|
d|-0-0-10-10--0-0-0-10-10--0-0-0-10-10--0-0-0-10-10-|
a|-0-0-8--8---0-0-0-8--8---0-0-0-8--8---0-0-0-8--10-|
d|-0-0--------0-0-0--------0-0-0--------0-0-0----10-|

Verse
e|--------------------------------|
b|--------------------------------|
g|-x-x-10-x-x-10-x-x-10-x-x-10----|
d|-x-x-10-x-x-10-x-x-10-x-x-10-10-|
a|-x-x-8--x-x-8--x-x-8--x-x-8--10-|
d|-----------------------------10-|
[ Tab from: http://www.guitartabs.cc/tabs/p/papa_roach/infest_tab_ver_3.html ]
Pre-Chorus
e|---------------------|------------------------------|
b|---------------------|------------------------------|
g|----------10-10-9-10-|----------10-10---------------|
d|-7-7-7-7--10-10-9-10-|-7-7-7-7--10-10--2-2-2--3-3-3-|
a|-7-7-7-7--8--8--7-8--|-7-7-7-7--8--8---2-2-2--3-3-3-|
d|-7-7-7-7-------------|-7-7-7-7---------2-2-2--3-3-3-|

Chorus I
e|---------------|---------------|---------------|------------|
b|---------------|---------------|---------------|------------|
g|------10-10-10-|------10-10-10-|------10-10-10-|------12-10-|
d|-0-0--10-10-10-|-0-0--10-10-10-|-0-0--10-10-10-|-0-0--12-10-|
a|-0-0--8--8--8--|-0-0--8--8--8--|-0-0--8--8--8--|-0-0--10-8--|
d|-0-0-----------|-0-0-----------|-0-0-----------|-0-0--------|

Chorus II
e|---------------|---------------|---------------|------------|
b|---------------|---------------|---------------|------------|
g|---------------|---------------|---------------|------12-10-|
d|-7-7--10-10-10-|-7-7--10-10-10-|-7-7--10-10-10-|-7-7--12-10-|
a|-7-7--10-10-10-|-7-7--10-10-10-|-7-7--10-10-10-|-7-7--10-8--|
d|-7-7--10-10-10-|-7-7--10-10-10-|-7-7--10-10-10-|-7-7--------|

Breakdown
Intro
Interlude
Bridge
Verse (Wah Distortion)
Pre-Chorus
Chorus
Bridge
Verse (Wah Distortion)
Pre-Chorus
Chorus
Interlude
Intro
Chorus
End with first part of Chorus

* This is pretty much perfect except I'm not fully sure about the first part of the Pre-Chorus
* Remember to view this with Courier Regular size 10
* If ya can't figure out the timing...tough
* Email me questions, comments, suggestions, errors 
:: Ultimate Guitar Archive :: 
http://www.ultimate-guitar.com 

Comments