Papa Roach - Infest Chords & Tabs

 

Infest Chords & Tabs

Papa Roach Chords & Tabs

Version: 1 Type: Tab 0 ratings
1 star 2 stars 3 stars 4 stars 5 stars
comments

Infest Tab

Standard Tuning 

------------------------------------------------------------------------------ 
------------------------------------------------------------------------------ 
---7-7---13-13---10-10---13-13---9-9---5-5------------------------------------ 
---7-7---13-13---10-10---13-13---9-9---5-5------------------------------------ 
---5-5---11-11---8--8----11-11---7-7---3-3------------------------------------ 
------------------------------------------------------------------------------ 
         About 0:23 Seconds Into the Song  (Above)^ 

------------------------------------------------------------------------------ 
------------------------------------------------------------------------------ 
-10-10-7-10------------------------------------------------------------------- 
--------------10-10-7-10------------------------------------------------------ 
------------------------------------------------------------------------------ 
------------------------------------------------------------------------------ 
       About 0:33 Seconds Into the Song (Above)^ 

------------------------------------------------------------------------------ 
------------------------------------------------------------------------------ 
-----10-10----------10-10---------10-10----------10-8------------------------- 
-5---10-10---5555---10-10---555---10-10---5555---10-8------------------------- 
-5---8--8----5555---8--8----555---8--8----5555---8--6------------------------- 
-5-----------5555-----------555-----------5555-------------------------------- 
        About 0:44 Seconds Into the Song (Above)^ 
[ Tab from: http://www.guitartabs.cc/tabs/p/papa_roach/infest_tab.html ]
------------------------------------------------------------------------------ 
------------------------------------------------------------------------------ 
-10---10---10---10-8---------------------------------------------------------- 
-10---10---10---10-8---------------------------------------------------------- 
-8----8----8----8--6---------------------------------------------------------- 
------------------------------------------------------------------------------ 
         About 0:54 Seconds (Above)^   Use A Wah Pedal 

------------------------------------------------------------------------------ 
------------------------------------------------------------------------------ 
-----------------7-8---------------------------------------------------------- 
-5-5-5-5-5-5-5---7-8---------------------------------------------------------- 
-5-5-5-5-5-5-5---5-6---------------------------------------------------------- 
-5-5-5-5-5-5-5---------------------------------------------------------------- 
         About 1:14 Seconds (above)^ 

------------------------------------------------------------------------------ 
------------------------------------------------------------------------------ 
-------10-10-10-10---------10-10-10---------10-10-10-10---------11-9---------- 
-5-5---10-10-10-10---5-5---10-10-10---5-5---10-10-10-10---5-5---11-9---------- 
-5-5---8--8--8--8----5-5---8--8--8----5-5---8--8--8--8----5-5---9--7---------- 
-5-5-----------------5-5--------------5-5-----------------5-5----------------- 
         About 1:24             (2x)      Last Fill (Listen to the song) 

------------------------------------------------------------------------------ 
-2-2-------------2-2-----------2-2-------------------------------------------- 
-2-2---5-5-5-5---2-2---5-5-5---2-2---5-5-5-5---10-8--------------------------- 
-2-2---5-5-5-5---2-2---5-5-5---2-2---5-5-5-5---10-8--------------------------- 
-------3-3-3-3---------3-3-3---------3-3-3-3---8--6--------------------------- 
------------------------------------------------------------------------------ 
         That's It!!! Pretty Easy and Fun To Play 
Comments