Papa Roach - Getting Away With Murder Chords & Tabs

 

Getting Away With Murder Chords & Tabs

Papa Roach Chords & Tabs

Version: 2 Type: Tab 0 ratings
1 star 2 stars 3 stars 4 stars 5 stars
comments

Getting Away With Murder Tab

   
Band: Papa Roach
Song: Getting Away With Murder

Tuning: D A D G B E - For both guitars
 Intro
  Gtr I
  Wx4
|--------|
|--------|
|--------|
|--------|
|--------|
|--------|


   Pre Verse
    C5/G
    Gtr I
     E     E     E     E     E     E     E     E
||--------------------------------------------------|
||o-------------------------------------------------|
||--------------------------------------------------|
||---5-----5-----5-----5-----5-----5-----5-----5----|
||o--3-----3-----3-----3-----3-----3-----3-----3----|
||---5-----5-----5-----5-----5-----5-----5-----5----|
|
|   Gtr II
|    S  S  S  S  S  S  S  S  S  S  S  S  S  S  S  S
||--------------------------------------------------|
||o-13-13-13-13-13-13-13-13-13-13-13-13-13-13-13-13-|
||--------------------------------------------------|
||--10-10-10-10-10-10-10-10-10-10-10-10-10-10-10-10-|
||o-------------------------------------------------|
||--------------------------------------------------|


  G5                                  Bb5   G5
   E     E     E     E     E     S  S  S  S  S  S
|--------------------------------------------------|
|--------------------------------------------------|
|--------------------------------------------------|
|--5-----5-----5-----5-----5-----5--5--8--8--5--5--|
|--5-----5-----5-----5-----5-----5--5--8--8--5--5--|
|--5-----5-----5-----5-----5-----5--5--8--8--5--5--|
|
|  S  S  S  S  S  S  S  S  S  S  S  S  S  S  S  S
|--------------------------------------------------|
|-12-12-12-12-12-12-12-12-15-15-15-15-15-15-15-15--|
|--------------------------------------------------|
|--9--9--9--9--9--9--9--9-12-12-12-12-12-12-12-12--|
|--------------------------------------------------|
|--------------------------------------------------|


  G#5                                       Bb5
   E     E     E     E     E     E     E     E
|-------------------------------------------------|
|-------------------------------------------------|
|-------------------------------------------------|
|--6-----6-----6-----6-----6-----6-----6-----8----|
|--6-----6-----6-----6-----6-----6-----6-----8----|
|--6-----6-----6-----6-----6-----6-----6-----8----|
|
|  S  S  S  S  S  S  S  S  S  S  S  S  S  S  S  S
|-------------------------------------------------|
|-16-16-16-16-16-16-16-16-16-16-16-16-16-16-16-16-|
|-------------------------------------------------|
|-13-13-13-13-13-13-13-13-13-13-13-13-13-13-13-13-|
|-------------------------------------------------|
|-------------------------------------------------|


  G5
   E     E     E     E    E   E   E   E
|------------------------------------------||
|-----------------------------------------o||
|------------------------------------------||
|--5-----5-----5-----5----5---5---5---5----||
|--5-----5-----5-----5----5---5---5---5---o||
|--5-----5-----5-----5----5---5---5---5----||
|
|  S  S  S  S  S  S  S  S S S S S S S S S
|------------------------------------------||
|-15-15-15-15-15-15-15-15-8-8-8-8-8-8-8-8-o||
|------------------------------------------||
|-12-12-12-12-12-12-12-12-5-5-5-5-5-5-5-5--||
|-----------------------------------------o||
|------------------------------------------||


   Verse
    C5/G              G5            Bb5 G5
    Gtr I
    E E E E E E E E   E E E E E S S S S S S
||------------------|-----------------------|
||o-----------------|-----------------------|
||------------------|-----------------------|
||--5-5-5-5-5-5-5-5-|-5-5-5-5-5-5-5-8-8-5-5-|
||o-3-3-3-3-3-3-3-3-|-5-5-5-5-5-5-5-8-8-5-5-|
||--5-5-5-5-5-5-5-5-|-5-5-5-5-5-5-5-8-8-5-5-|


  G#5           Bb5 G5
  E E E E E E E E   E E E E E E E E
|-----------------|------------------||
|-----------------|-----------------o||
|-----------------|------------------||
|-6-6-6-6-6-6-6-8-|-5-5-5-5-5-5-5-5--||
|-6-6-6-6-6-6-6-8-|-5-5-5-5-5-5-5-5-o||
|-6-6-6-6-6-6-6-8-|-5-5-5-5-5-5-5-5--||


 Chorus
  C5/G              G#5                F5                 C#5/Ab
  Gtr I
  Q.   S E S Q.      Q.   S E S Q.      Q.   S E S Q.     Q.   S E S Q.
|-----------------|------------------|------------------|-----------------|
|-----------------|------------------|------------------|-----------------|
|-----------------|------------------|------------------|-----------------|
|-5----5-5-5-5----|--6----6-6-6-6----|--3----3-3-3-3----|-6----6-6-6-6----|
|-3----3-3-3-3----|--6----6-6-6-6----|--3----3-3-3-3----|-4----4-4-4-4----|
|-5----5-5-5-5----|--6----6-6-6-6----|--3----3-3-3-3----|-6----6-6-6-6----|
|
| Gtr III
| W                  W                  W                 W
|-----------------|------------------|------------------|-----------------|
|-----------------|------------------|------------------|-----------------|
|-----------------|-13---------------|-10---------------|-----------------|
|-----------------|--x---------------|--x---------------|-----------------|
|-----------------|-11---------------|--8---------------|-----------------|
|-----------------|------------------|------------------|-----------------|


  C5/G              G#5               Eb5               C#5/Ab
  Q.   S E S Q.     Q.   S E S Q.     Q.   S E S Q.     Q.   S E S Q.
|-----------------|-----------------|-----------------|-----------------|
|-----------------|-----------------|-----------------|-----------------|
|-----------------|-----------------|-----------------|-----------------|
|-5----5-5-5-5----|-6----6-6-6-6----|-1----1-1-1-1----|-6----6-6-6-6----|
|-3----3-3-3-3----|-6----6-6-6-6----|-1----1-1-1-1----|-4----4-4-4-4----|
|-5----5-5-5-5----|-6----6-6-6-6----|-1----1-1-1-1----|-6----6-6-6-6----|


 Bass Fill
  W
|------|
|------|
|------|
|------|
|------|
|------|


   Verse
    C5/G              G5            Bb5 G5
    E E E E E E E E   E E E E E S S S S S S
||------------------|-----------------------|
||o-----------------|-----------------------|
||------------------|-----------------------|
||--5-5-5-5-5-5-5-5-|-5-5-5-5-5-5-5-8-8-5-5-|
||o-3-3-3-3-3-3-3-3-|-5-5-5-5-5-5-5-8-8-5-5-|
||--5-5-5-5-5-5-5-5-|-5-5-5-5-5-5-5-8-8-5-5-|


  G#5           Bb5 G5
  E E E E E E E E   E E E E E E E E
|-----------------|------------------||
|-----------------|-----------------o||
|-----------------|------------------||
|-6-6-6-6-6-6-6-8-|-5-5-5-5-5-5-5-5--||
|-6-6-6-6-6-6-6-8-|-5-5-5-5-5-5-5-5-o||
|-6-6-6-6-6-6-6-8-|-5-5-5-5-5-5-5-5--||


 Chorus
  C5/G              G#5                F5                 C#5/Ab
  Q.   S E S Q.      Q.   S E S Q.      Q.   S E S Q.     Q.   S E S Q.
|-----------------|------------------|------------------|-----------------|
|-----------------|------------------|------------------|-----------------|
|-----------------|------------------|------------------|-----------------|
|-5----5-5-5-5----|--6----6-6-6-6----|--3----3-3-3-3----|-6----6-6-6-6----|
|-3----3-3-3-3----|--6----6-6-6-6----|--3----3-3-3-3----|-4----4-4-4-4----|
|-5----5-5-5-5----|--6----6-6-6-6----|--3----3-3-3-3----|-6----6-6-6-6----|
|
| Gtr III
| W                  W                  W                 W
|-----------------|------------------|------------------|-----------------|
|-----------------|------------------|------------------|-----------------|
|-----------------|-13---------------|-10---------------|-----------------|
|-----------------|--x---------------|--x---------------|-----------------|
|-----------------|-11---------------|--8---------------|-----------------|
|-----------------|------------------|------------------|-----------------|


  C5/G              G#5               Eb5               C#5/Ab
  Q.   S E S Q.     Q.   S E S Q.     Q.   S E S Q.     Q.   S E S Q.
|-----------------|-----------------|-----------------|-----------------|
|-----------------|-----------------|-----------------|-----------------|
|-----------------|-----------------|-----------------|-----------------|
|-5----5-5-5-5----|-6----6-6-6-6----|-1----1-1-1-1----|-6----6-6-6-6----|
|-3----3-3-3-3----|-6----6-6-6-6----|-1----1-1-1-1----|-4----4-4-4-4----|
|-5----5-5-5-5----|-6----6-6-6-6----|-1----1-1-1-1----|-6----6-6-6-6----|


 Bass Fill
  Wx4
|--------|
|--------|
|--------|
|--------|
|--------|
|--------|


 Bridge
  C5/G  Bb5         G#5         G5
   E     Q           S  S  E     E     Q
|-------------------------------------------------|
|-------------------------------------------------|
|-------------------------------------------------|
|--5-----8-----------6--6--6-----5-----5----------|
|--3-----8-----------6--6--6-----5-----5----------|
|--5-----8-----------6--6--6-----5-----5----------|
|
| Gtr III
|  S  S  S  S  S  S  S  S  S  S  S  S  S  S  S  S
|-------------------------------------------------|
|-13-13-13-13-13-13-13-13-13-13-13-13-13-13-13-13-|
|-------------------------------------------------|
|-10-10-10-10-10-10-10-10-10-10-10-10-10-10-10-10-|
|-------------------------------------------------|
|-------------------------------------------------|


  G#5               Bb5G5
   E     E     E     S  E     S  Q.
|--------------------------------------------------|
|--------------------------------------------------|
|--------------------------------------------------|
|--6-----6-----6-----8--5-----5--5-----------------|
|--6-----6-----6-----8--5-----5--5-----------------|
|--6-----6-----6-----8--5-----5--5-----------------|
|
|  S  S  S  S  S  S  S  S  S  S  S   S  S  S  S  S
|--------------------------------------------------|
|-12-12-12-12-12-12-12-12-15-15-15--15-15-15-15-15-|
|--------------------------------------------------|
|--9--9--9--9--9--9--9--9-12-12-12--12-12-12-12-12-|
|--------------------------------------------------|
|--------------------------------------------------|

[ Tab from: http://www.guitartabs.cc/tabs/p/papa_roach/getting_away_with_murder_tab_ver_2.html ]
  Eb5
   W
|-------------------------------------------------|
|-------------------------------------------------|
|-------------------------------------------------|
|--1----------------------------------------------|
|--1----------------------------------------------|
|--1----------------------------------------------|
|
|  S  S  S  S  S  S  S  S  S  S  S  S  S  S  S  S
|-------------------------------------------------|
|-16-16-16-16-16-16-16-16-16-16-16-16-16-16-16-16-|
|-------------------------------------------------|
|-13-13-13-13-13-13-13-13-13-13-13-13-13-13-13-13-|
|-------------------------------------------------|
|-------------------------------------------------|


  G5
   W
|-----------------------------------------|
|-----------------------------------------|
|-----------------------------------------|
|--5--------------------------------------|
|--5--------------------------------------|
|--5--------------------------------------|
|
|  S  S  S  S  S  S  S  S S S S S S S S S
|-----------------------------------------|
|-15-15-15-15-15-15-15-15-8-8-8-8-8-8-8-8-|
|-----------------------------------------|
|-12-12-12-12-12-12-12-12-5-5-5-5-5-5-5-5-|
|-----------------------------------------|
|-----------------------------------------|


  C5/G  Bb5         G#5         G5
   E     Q           S  S  E     E     Q
|-------------------------------------------------|
|-------------------------------------------------|
|-------------------------------------------------|
|--5-----8-----------6--6--6-----5-----5----------|
|--3-----8-----------6--6--6-----5-----5----------|
|--5-----8-----------6--6--6-----5-----5----------|
|
|  S  S  S  S  S  S  S  S  S  S  S  S  S  S  S  S
|-------------------------------------------------|
|-13-13-13-13-13-13-13-13-13-13-13-13-13-13-13-13-|
|-------------------------------------------------|
|-10-10-10-10-10-10-10-10-10-10-10-10-10-10-10-10-|
|-------------------------------------------------|
|-------------------------------------------------|


  G#5               Bb5G5
   E     E     E     S  E     S  Q.
|--------------------------------------------------|
|--------------------------------------------------|
|--------------------------------------------------|
|--6-----6-----6-----8--5-----5--5-----------------|
|--6-----6-----6-----8--5-----5--5-----------------|
|--6-----6-----6-----8--5-----5--5-----------------|
|
|  S  S  S  S  S  S  S  S  S  S  S   S  S  S  S  S
|--------------------------------------------------|
|-12-12-12-12-12-12-12-12-15-15-15--15-15-15-15-15-|
|--------------------------------------------------|
|--9--9--9--9--9--9--9--9-12-12-12--12-12-12-12-12-|
|--------------------------------------------------|
|--------------------------------------------------|


  Eb5
   W
|-------------------------------------------------|
|-------------------------------------------------|
|-------------------------------------------------|
|--1----------------------------------------------|
|--1----------------------------------------------|
|--1----------------------------------------------|
|
|  S  S  S  S  S  S  S  S  S  S  S  S  S  S  S  S
|-------------------------------------------------|
|-16-16-16-16-16-16-16-16-16-16-16-16-16-16-16-16-|
|-------------------------------------------------|
|-13-13-13-13-13-13-13-13-13-13-13-13-13-13-13-13-|
|-------------------------------------------------|
|-------------------------------------------------|


  G5                     G5  G#5   G5  F5  Eb5
   Q..                    S  S S   S S S S S S
|----------------------------------------------|
|----------------------------------------------|
|----------------------------------------------|
|--5----------------------5--6-6---5-5-3-3-1-1-|
|--5----------------------5--6-6---5-5-3-3-1-1-|
|--5----------------------5--6-6---5-5-3-3-1-1-|
|
|  S    S  S  S  S  S  S  E    Q..
|----------------------------------------------|
|-15---15-15-15-15-15-15-15-------------------|
|----------------------------------------------|
|-12---12-12-12-12-12-12-12-------------------|
|----------------------------------------------|
|----------------------------------------------|


   Verse
    C5/G
    Gtr I
     E     E     E     E     E     E     E     E
||--------------------------------------------------|
||o-------------------------------------------------|
||--------------------------------------------------|
||---5-----5-----5-----5-----5-----5-----5-----5----|
||o--3-----3-----3-----3-----3-----3-----3-----3----|
||---5-----5-----5-----5-----5-----5-----5-----5----|
|
|   Gtr II
|    S  S  S  S  S  S  S  S  S  S  S  S  S  S  S  S
||--------------------------------------------------|
||o-13-13-13-13-13-13-13-13-13-13-13-13-13-13-13-13-|
||--------------------------------------------------|
||--10-10-10-10-10-10-10-10-10-10-10-10-10-10-10-10-|
||o-------------------------------------------------|
||--------------------------------------------------|


  G5                                  Bb5   G5
   E     E     E     E     E     S  S  S  S  S  S
|--------------------------------------------------|
|--------------------------------------------------|
|--------------------------------------------------|
|--5-----5-----5-----5-----5-----5--5--8--8--5--5--|
|--5-----5-----5-----5-----5-----5--5--8--8--5--5--|
|--5-----5-----5-----5-----5-----5--5--8--8--5--5--|
|
|  S  S  S  S  S  S  S  S  S  S  S  S  S  S  S  S
|--------------------------------------------------|
|-12-12-12-12-12-12-12-12-15-15-15-15-15-15-15-15--|
|--------------------------------------------------|
|--9--9--9--9--9--9--9--9-12-12-12-12-12-12-12-12--|
|--------------------------------------------------|
|--------------------------------------------------|


  G#5                                       Bb5
   E     E     E     E     E     E     E     E
|-------------------------------------------------|
|-------------------------------------------------|
|-------------------------------------------------|
|--6-----6-----6-----6-----6-----6-----6-----8----|
|--6-----6-----6-----6-----6-----6-----6-----8----|
|--6-----6-----6-----6-----6-----6-----6-----8----|
|
|  S  S  S  S  S  S  S  S  S  S  S  S  S  S  S  S
|-------------------------------------------------|
|-16-16-16-16-16-16-16-16-16-16-16-16-16-16-16-16-|
|-------------------------------------------------|
|-13-13-13-13-13-13-13-13-13-13-13-13-13-13-13-13-|
|-------------------------------------------------|
|-------------------------------------------------|


  G5
   E     E     E     E    E   E   E   E
|------------------------------------------||
|-----------------------------------------o||
|------------------------------------------||
|--5-----5-----5-----5----5---5---5---5----||
|--5-----5-----5-----5----5---5---5---5---o||
|--5-----5-----5-----5----5---5---5---5----||
|
|  S  S  S  S  S  S  S  S S S S S S S S S
|------------------------------------------||
|-15-15-15-15-15-15-15-15-8-8-8-8-8-8-8-8-o||
|------------------------------------------||
|-12-12-12-12-12-12-12-12-5-5-5-5-5-5-5-5--||
|-----------------------------------------o||
|------------------------------------------||


 Chorus
  C5/G              G#5                F5                 C#5/Ab
  Q.   S E S Q.      Q.   S E S Q.      Q.   S E S Q.     Q.   S E S Q.
|-----------------|------------------|------------------|-----------------|
|-----------------|------------------|------------------|-----------------|
|-----------------|------------------|------------------|-----------------|
|-5----5-5-5-5----|--6----6-6-6-6----|--3----3-3-3-3----|-6----6-6-6-6----|
|-3----3-3-3-3----|--6----6-6-6-6----|--3----3-3-3-3----|-4----4-4-4-4----|
|-5----5-5-5-5----|--6----6-6-6-6----|--3----3-3-3-3----|-6----6-6-6-6----|
|
| Gtr III
| W                  W                  W                 W
|-----------------|------------------|------------------|-----------------|
|-----------------|------------------|------------------|-----------------|
|-----------------|-13---------------|-10---------------|-----------------|
|-----------------|--x---------------|--x---------------|-----------------|
|-----------------|-11---------------|--8---------------|-----------------|
|-----------------|------------------|------------------|-----------------|


  C5/G              G#5               Eb5               C#5/Ab
  Q.   S E S Q.     Q.   S E S Q.     Q.   S E S Q.     Q.   S E S Q.
|-----------------|-----------------|-----------------|-----------------|
|-----------------|-----------------|-----------------|-----------------|
|-----------------|-----------------|-----------------|-----------------|
|-5----5-5-5-5----|-6----6-6-6-6----|-1----1-1-1-1----|-6----6-6-6-6----|
|-3----3-3-3-3----|-6----6-6-6-6----|-1----1-1-1-1----|-4----4-4-4-4----|
|-5----5-5-5-5----|-6----6-6-6-6----|-1----1-1-1-1----|-6----6-6-6-6----|


 Drum Fill
           G5
  Q  Q  Q  Q
|----------------|
|----------------|
|----------------|
|----------5----|
|----------5-----|
|----------5----|


 Out-Chorus
  C5/G              G#5                F5                 C#5/Ab
  Q.   S E S Q.      Q.   S E S Q.      Q.   S E S Q.     Q.   S E S Q.
|-----------------|------------------|------------------|-----------------|
|-----------------|------------------|------------------|-----------------|
|-----------------|------------------|------------------|-----------------|
|-5----5-5-5-5----|--6----6-6-6-6----|--3----3-3-3-3----|-6----6-6-6-6----|
|-3----3-3-3-3----|--6----6-6-6-6----|--3----3-3-3-3----|-4----4-4-4-4----|
|-5----5-5-5-5----|--6----6-6-6-6----|--3----3-3-3-3----|-6----6-6-6-6----|
|
| Gtr III
| W                  W                  W                 W
|-----------------|------------------|------------------|-----------------|
|-----------------|------------------|------------------|-----------------|
|-----------------|-13---------------|-10---------------|-----------------|
|-----------------|--x---------------|--x---------------|-----------------|
|-----------------|-11---------------|--8---------------|-----------------|
|-----------------|------------------|------------------|-----------------|


  C5/G              G#5               Eb5               C#5/Ab
  Q.   S E S Q.     Q.   S E S Q.     Q.   S E S Q.     Q.   S E S Q.
|-----------------|-----------------|-----------------|-----------------*|
|-----------------|-----------------|-----------------|-----------------*|
|-----------------|-----------------|-----------------|-----------------*|
|-5----5-5-5-5----|-6----6-6-6-6----|-1----1-1-1-1----|-6----6-6-6-6----*|
|-3----3-3-3-3----|-6----6-6-6-6----|-1----1-1-1-1----|-4----4-4-4-4----*|
|-5----5-5-5-5----|-6----6-6-6-6----|-1----1-1-1-1----|-6----6-6-6-6----*|
Comments