Papa Roach - Done With You Chords & Tabs

 

Done With You Chords & Tabs

Papa Roach Chords & Tabs

Version: 2 Type: Tab 0 ratings
1 star 2 stars 3 stars 4 stars 5 stars
comments

Done With You Tab

   
Tuning:

|E|
|B|
|G|
|D|
|A|
|E|

Intro

x2
|----------------------------------------------------------------|
|----------------------------------------------------------------|
|--------------------------------8-8-8-8-8-8-8-8-----------------|
|8-8-8-8-8-8-8-8-6-6-6-6-6-6-6-6-8-8-8-8-8-8-8-8-4-4-4-4-6-6-6-6-|
|8-8-8-8-8-8-8-8-6-6-6-6-6-6-6-6-6-6-6-6-6-6-6-6-4-4-4-4-6-6-6-6-|
|6-6-6-6-6-6-6-6-4-4-4-4-4-4-4-4-----------------2-2-2-2-4-4-4-4-|
pm..............................................................
Verse

x2
|----------------|
|----------------|
|--------8-8-----|
|8-8-6-6-8-8-4-6-|
|8-8-6-6-6-6-4-6-|
|6-6-4-4-----2-4-|

Chorus

|----------------------------------------------------------------|
|----------------------------------------------------------------|
|--------------------------------8-8-8-8-8-8-8-8-----------------|
|8-8-8-8-8-8-8-8-4-4-4-4-4-4-4-4-8-8-8-8-8-8-8-8-6-6-6-6-6-6-6-6-|
|8-8-8-8-8-8-8-8-4-4-4-4-4-4-4-4-6-6-6-6-6-6-6-6-6-6-6-6-6-6-6-6-|
|6-6-6-6-6-6-6-6-2-2-2-2-2-2-2-2-----------------4-4-4-4-4-4-4-4-|

|----------------------------------------------------------------|
|----------------------------------------------------------------|
|--------------------------------8-8-8-8-8-8-8-8-8-8-8-8-8-8-8-8-|
|8-8-8-8-8-8-8-8-4-4-4-4-4-4-4-4-8-8-8-8-8-8-8-8-8-8-8-8-8-8-8-8-|
|8-8-8-8-8-8-8-8-4-4-4-4-4-4-4-4-6-6-6-6-6-6-6-6-6-6-6-6-6-6-6-6-|
|6-6-6-6-6-6-6-6-2-2-2-2-2-2-2-2---------------------------------|

and then...

|------|
|------|
|6-----|
|6-6-4-|
|4-6-4-|
|--4-2-|

Verse

x4
|----------------------------------------------------------------|
|----------------------------------------------------------------|
|--------------------------------8-8-8-8-8-8-8-8-----------------|
|8-8-8-8-8-8-8-8-6-6-6-6-6-6-6-6-8-8-8-8-8-8-8-8-4-4-4-4-6-6-6-6-|
|8-8-8-8-8-8-8-8-6-6-6-6-6-6-6-6-6-6-6-6-6-6-6-6-4-4-4-4-6-6-6-6-|
|6-6-6-6-6-6-6-6-4-4-4-4-4-4-4-4-----------------2-2-2-2-4-4-4-4-|
pm..............................................................

Chorus
[ Tab from: http://www.guitartabs.cc/tabs/p/papa_roach/done_with_you_tab_ver_2.html ]
|----------------------------------------------------------------|
|----------------------------------------------------------------|
|--------------------------------8-8-8-8-8-8-8-8-----------------|
|8-8-8-8-8-8-8-8-4-4-4-4-4-4-4-4-8-8-8-8-8-8-8-8-6-6-6-6-6-6-6-6-|
|8-8-8-8-8-8-8-8-4-4-4-4-4-4-4-4-6-6-6-6-6-6-6-6-6-6-6-6-6-6-6-6-|
|6-6-6-6-6-6-6-6-2-2-2-2-2-2-2-2-----------------4-4-4-4-4-4-4-4-|

|----------------------------------------------------------------|
|----------------------------------------------------------------|
|--------------------------------8-8-8-8-8-8-8-8-8-8-8-8-8-8-8-8-|
|8-8-8-8-8-8-8-8-4-4-4-4-4-4-4-4-8-8-8-8-8-8-8-8-8-8-8-8-8-8-8-8-|
|8-8-8-8-8-8-8-8-4-4-4-4-4-4-4-4-6-6-6-6-6-6-6-6-6-6-6-6-6-6-6-6-|
|6-6-6-6-6-6-6-6-2-2-2-2-2-2-2-2---------------------------------|

|------------------------------------|
|------------------------------------|
|6-----------------------------------|
|6-6-4-4-4-4-4-4-4-4-4-4-4-4-4-4-4-4-|
|4-6-4-4-4-4-4-4-4-4-4-4-4-4-4-4-4-4-|
|--4-2-2-2-2-2-2-2-2-2-2-2-2-2-2-2-2-|
pm   ...............................

and then...

x4
|----------------------------|
|----------------------------|
|------------------8-8-6-8-8-|
|8-8-6-8-4-4-4---4-8-8-6-8-8-|
|8-8-6-8-4-4-4-4-4-6-6-4-6-6-|
|6-6-4-6-2-2-2---2-----------|

x2
|----------------------------------------------------------------|
|----------------------------------------------------------------|
|--------------------------------8-8-8-8-8-8-8-8-----------------|
|8-8-8-8-8-8-8-8-6-6-6-6-6-6-6-6-8-8-8-8-8-8-8-8-4-4-4-4-6-6-6-6-|
|8-8-8-8-8-8-8-8-6-6-6-6-6-6-6-6-6-6-6-6-6-6-6-6-4-4-4-4-6-6-6-6-|
|6-6-6-6-6-6-6-6-4-4-4-4-4-4-4-4-----------------2-2-2-2-4-4-4-4-|
pm..............................................................

Chorus

|----------------------------------------------------------------|
|----------------------------------------------------------------|
|--------------------------------8-8-8-8-8-8-8-8-----------------|
|8-8-8-8-8-8-8-8-4-4-4-4-4-4-4-4-8-8-8-8-8-8-8-8-6-6-6-6-6-6-6-6-|
|8-8-8-8-8-8-8-8-4-4-4-4-4-4-4-4-6-6-6-6-6-6-6-6-6-6-6-6-6-6-6-6-|
|6-6-6-6-6-6-6-6-2-2-2-2-2-2-2-2-----------------4-4-4-4-4-4-4-4-|

|----------------------------------------------------------------|
|----------------------------------------------------------------|
|--------------------------------8-8-8-8-8-8-8-8-8-8-8-8-8-8-8-8-|
|8-8-8-8-8-8-8-8-4-4-4-4-4-4-4-4-8-8-8-8-8-8-8-8-8-8-8-8-8-8-8-8-|
|8-8-8-8-8-8-8-8-4-4-4-4-4-4-4-4-6-6-6-6-6-6-6-6-6-6-6-6-6-6-6-6-|
|6-6-6-6-6-6-6-6-2-2-2-2-2-2-2-2---------------------------------|

x3
|--------------------| |------|
|--------------------| |------|
|6---8-8-8-8-8-8-8-8-| |6-----|
|6-6-8-8-8-8-8-8-8-8-| |6-6-4-|
|4-6-6-6-6-6-6-6-6-6-| |4-6-4-|
|--4-----------------| |--4-2-| and then fade out with F#
Comments