Papa Roach - Done With You Chords & Tabs

 

Done With You Chords & Tabs

Papa Roach Chords & Tabs

Version: 1 Type: Bass Tab 0 ratings
1 star 2 stars 3 stars 4 stars 5 stars
comments

Done With You Bass Tab

Band- Papa Roach
Song- Done With You
Tuning- Standard

Verse 1: Bass starts 0.13

G:---------------------------------------------------------------------------------------|
D:---------------------------------------------------------------------------------------|
A:----------66-----------------66--------------------------------------------------------|
E:--66-44-------22-44-66--44-------222-444-666-------------------------------------------|

Chorus:

G:----------------------------------------------------------------------------------------|
D:----------------------------------------------------------------------------------------|
A:----------------------66666666--------------------------------------------666666666666--|
E:-66666666--22222222-----------------44444444--66666666--22222222------------------------|

G:-------------------------------|
D:-------------------------------|
A:--4----------------------------|
E-------------4-----------2------|

Verse 2: bass starts 0:52

G:------------------------------------------------------------------------------|
D:------------------------------------------------------------------------------|
A:---------------66---------------66--------------------------------------------|
E:--22-44-66-44------22-44-66-44------222-444-666-------------------------------|

Chorus:
[ Tab from: http://www.guitartabs.cc/tabs/p/papa_roach/done_with_you_btab.html ]
G:------------------------------------------------------------------------------|
D:------------------------------------------------------------------------------|
A:---------------------66666666----------------------------------666666666666---|
E:-66666666--22222222-------------44444444--66666666--22222222------------------|

G:------------------------------------------------|
D:------------------------------------------------|
A:--4---------------------------------------------|
E-------------4-----------222222222222------------|

Bridge:
 G:-------------------------------------------------|
 D:-------------------------------------------------|
 A:---------------4-----66-4-6-66-4-6-4-------------|     4x
 E:--66-4-6--222----4-------------------------------|

End chorus: bass rest until 2:01

G:---------------------------------------------------------------------------------|
D:---------------------------------------------------------------------------------|
A:---------------------66666666----------------------666666666666------------------|
E:-66666666--22222222-------------44444444--66--22---------------------------------|

G:---------------------------------------------------------------------------------|
D:------------------------------99-88-66------------------------------99-88-66-----|
A:----4--------------66666666--------------66-4----------66666666--------------66--|
E-------------4------------------------------------4-------------------------------|

G:------------------------------------------------------------|
D:------------------------------------------------------------|
A:--4-----------------666666666666--4-------------------------|
E-------------4---------------------------------4----2--------|
Comments