Papa Roach - Do Or Die Chords & Tabs

 

Do Or Die Chords & Tabs

Papa Roach Chords & Tabs

Version: 3 Type: Tab 0 ratings
1 star 2 stars 3 stars 4 stars 5 stars
comments

Do Or Die Tab

Band- Papa Roach
Song- Do Or Die
Tuning- Drop D

INTRO

|----------------|----------------|
|----------------|----------------|
|----------------|----------------|
|----15--14----12|----15--14------|
|--12--------13--|--12--------1512|
|12----12--12----|12----12--12----|

VERSE

|----------------|----------------|     |----------------|----------------|
|----------------|----------------|     |----------------|----------------|
|----------------|----------------|     |----------------|----------------|
|----15--14----12|----15--14------|     |----15--14----12|----15--14------|
|--12--------15--|--12--------1512|     |--10--------15--|--10--------1512|
|12----12--12----|12----12--12----|  X3 |10----10--10----|10----10--10----|

|----------------|----------------|     |----------------|----------------|
|----------------|----------------|     |----------------|----------------|
|----------------|----------------|     |----------------|----------------|
|----15--14----12|----15--14------|     |10--------------|----------------|
|--12--------15--|--12--------1512|     |10--------------|----------------|
|12----12--12----|12----12--12----|  x3 |10--------------|----------------|

PRE-CHORUS

( in the second bar all the notes are 10s 15s or 14s ( no 1s or 0s ))
[ Tab from: http://www.guitartabs.cc/tabs/p/papa_roach/do_or_die_tab_ver_3.html ]
|----------------|----------------|
|----------------|----------------|
|----10---9------|----15--14------|
|8-8-8-8-8-8-108-|1010101010101510|
|8-8-8-8-8-8-8-8-|1010101010101010|
|8-8-8-8-8-8-8-8-|1010101010101010|

CHORUS

( in the second bar all the notes are 12s not 1s and 2s )

|----------------|----------------|----------------|----------------|
|----------------|----------------|----------------|----------------|
|1010101010101010|----------------|----------------|----------------|
|1010101010101010|1212121212121212|1010101010101010|9-9-9-9-9-9-9-9-|
|8-8-8-8-8-8-8-8-|1212121212121212|1010101010101010|9-9-9-9-9-9-9-9-|
|----------------|1212121212121212|1010101010101010|9-9-9-9-9-9-9-9-|

LINK

|----------------|----------------|
|----------------|----------------|
|----15--14------|----------------|
|------------1512|----15--14------|
|--12------------|--12--------1512|
|12----12--12----|12----12--12----|

INTERLUDE

|----------------|
|----------------|
|----------------|
|----3---2-----0-|
|--0---------3---|
|0-----0---0-----|

SONG ORDER

INTRO x 2
VERSE x 1
PRE-CHORUS x 1
CHORUS x 2
LINK x 1
VERSE x2
PRE-CHORUS x 1
CHORUS x 4
INTERLUDE x 8
INTRO x 1
VERSE x 1 ( second-half only )
PRE-CHORUS x1
CHORUS x 6
INTERLUDE x 8

ENJOY!!!!!
Comments