Papa Roach - Decompression Period Chords & Tabs

 

Decompression Period Chords & Tabs

Papa Roach Chords & Tabs

Version: 3 Type: Tab 0 ratings
1 star 2 stars 3 stars 4 stars 5 stars
comments

Decompression Period Tab

   
Band- Papa Roach
Song- Decompression Period
Album- Lovehatetragedy
Tuning- Down 1/2 step drop D

Intro/Verse
Eb|--------------------|----------------------------------|
Bb|--------------------|----------------------------------|
Gb|------3---2h3-------|--------------------------------0-|
Db|--------------------|-------3-5------5-7------3--------|
Ab|---5----5-----5-----|-----1--------3--------0-----1----|
Db|-5--------------5-4-|-4\1--------3--------0-----1------|

-------------------------------3----------------------------------|
------------------------------------------------------------------|
------------------------3--------3--------------------------------|
----------------------3---3--------3-------3----x-7h8-----x-7h8---|
-5--6--3--5--3------1-------1------------0------x-7h8-8---x-7h8-8-|
-------------3----1------------------4\0--------x-7h8-0---x-7h8-0-|

Chorus(Pt. 1)
Eb|------------------------------------------------------------------------------|
Bb|------------------------------------------------------------------------------|
Gb|------------------7-8-5-7-----------------------------------------------------|
Db|-5--5--5-5-5-5-4--x-x-x-x-3---1-1-1-1-1-1-1-1-1-1-1-1-1-1-1-1-0-0-0-0-0-0-0-0-|
Ab|-5--5--5-5-5-5-4--5-6-3-5-3---1-1-1-1-1-1-1-1-1-1-1-1-1-1-1-1-0-0-0-0-0-0-0-0-|
Db|-5--5--5-5-5-5-4----------3---1-1-1-1-1-1-1-1-1-1-1-1-1-1-1-1-0-0-0-0-0-0-0-0-|

-------------------|
-------------------|
-------------------|
-x-7h8-0-xx-3-xx-3-|
-x-7h8-0-xx-3-xx-3-|
-x-7h8-0-xx-3-xx-3-|
[ Tab from: http://www.guitartabs.cc/tabs/p/papa_roach/decompression_period_tab_ver_3.html ]
Chorus(Pt. 2)
Eb|-----------------------------------------------------------------------------|
Bb|-----------------------------------------------------------------------------|
Gb|-7xxxx7xxxx6xxxx6xxxx5xxxx5xxxx3xxxx3xxxx-7xxxx7xxxx10xxxx10xxxx12xxxx12xxxx-|
Db|-5xxxx5xxxx4xxxx4xxxx3xxxx3xxxx1xxxx1xxxx-5xxxx5xxxxx8xxxxx8xxxx10xxxx10xxxx-|
Ab|-5xxxx5xxxx4xxxx4xxxx3xxxx3xxxx1xxxx1xxxx-5xxxx5xxxxx8xxxxx8xxxx10xxxx10xxxx-|
Db|-5xxxx5xxxx4xxxx4xxxx3xxxx3xxxx1xxxx1xxxx-5xxxx5xxxxx8xxxxx8xxxx10xxxx10xxxx-|

End of Chorus 2, right before 2nd verse:
Eb|----------------------------------------------------|
Bb|----------------------------------------------------|
Gb|----------------------------------------------------|
Db|-13-13-13-13-13-13-13-13-12-12-12-12-12-12-12-12--5-|
Ab|-13-13-13-13-13-13-13-13-12-12-12-12-12-12-12-12--5-|
Db|-13-13-13-13-13-13-13-13-12-12-12-12-12-12-12-12--5-|

Solo(Pt. 1)
Eb|---------------------------------------------------------------------|
Bb|---------------------------------------------------------------------|
Gb|---------------------------------------------------------------------|
Db|-3-5-7--5--3--5----3-5-7--5--3--5----3-5-7--5--7-8-7-8-10-8--10--12v-|
Ab|---------------------------------------------------------------------|
Db|---------------------------------------------------------------------|

Solo(Pt. 2)
Eb|----------13-------|
Bb|-------------------|
Gb|-12-15-12----15-12-|
Db|-------------------|
Ab|-------------------|
Db|-------------------|
Comments