Papa Roach - Dead Cell Chords & Tabs

 

Dead Cell Chords & Tabs

Papa Roach Chords & Tabs

Version: 4 Type: Tab 0 ratings
1 star 2 stars 3 stars 4 stars 5 stars
comments

Dead Cell Tab

   
Band  : Papa Roach
Song  : Dead Cell
Album : Infest

Drop D tuning:

E
B
G
D
A
D


Intro/Bridge:

E|--------------------------------------------------------------
B|--------------------------------------------------------------
G|--------------------------------------------------------------
D|-2--0-2-0-2-2-0-2--0-2-0-2-2-0-2--0-2-0-2-2-0-4--0-4-0-4-5-4--
A|-2--0-2-0-2-2-0-2--0-2-0-2-2-0-2--0-2-0-2-2-0-4--0-4-0-4-5-4--
D|-2--0-2-0-2-2-0-2--0-2-0-2-2-0-2--0-2-0-2-2-0-4--0-4-0-4-5-4--

E|--------------------------------------------------------------
B|--------------------------------------------------------------
G|--------------------------------------------------------------
D|-2--0-2-0-2-2-0-2--0-2-0-2-2-0-2--0-2-0-2-2-0-2--9-9-9-5-5-5--
A|-2--0-2-0-2-2-0-2--0-2-0-2-2-0-2--0-2-0-2-2-0-2--9-9-9-5-5-5--
D|-2--0-2-0-2-2-0-2--0-2-0-2-2-0-2--0-2-0-2-2-0-2--9-9-9-5-5-5--

Play it 2x then go to verse..

Verse :
[ Tab from: http://www.guitartabs.cc/tabs/p/papa_roach/dead_cell_tab_ver_4.html ]
E|--------------------------------------------------------------
B|--------------------------------------------------------------
G|--------------------------------------------------------------
D|-2--0-2-0-2-0-2-0-2--2--2--2-2--0-2-0-2-0-2-0-4--4--4-5-4-----
A|-2--0-2-0-2-0-2-0-2--2--2--2-2--0-2-0-2-0-2-0-4--4--4-5-4-----
D|-2--0-2-0-2-0-2-0-2--2--2--2-2--0-2-0-2-0-2-0-4--4--4-5-4-----


E|--------------------------------------------------------------
B|--------------------------------------------------------------
G|--------------------------------------------------------------
D|-2--0-2-0-2-0-2-0-2--2--2--2-2--0-2-0-2-0-2-0-9--9--5-5-5-----
A|-2--0-2-0-2-0-2-0-2--2--2--2-2--0-2-0-2-0-2-0-9--9--5-5-5-----
D|-2--0-2-0-2-0-2-0-2--2--2--2-2--0-2-0-2-0-2-0-9--9--5-5-5-----

2x then chorus..

Chorus :


E|---------------------------------------||
B|---------------------------------------||
G|---------------------------------------||
D|-2--4/5--0-2--4/5--0-2--4/5--0-2--4/5--||
A|-2-------0-2-------0-2-------0-2-------||
D|-2-------0-2-------0-2-------0-2-------||

Tabbed by Irsha P.

Mail : slash_the_69@hotmail.com
Comments