Papa Roach - Dead Cell Chords & Tabs

 

Dead Cell Chords & Tabs

Papa Roach Chords & Tabs

Version: 1 Type: Tab 0 ratings
1 star 2 stars 3 stars 4 stars 5 stars
comments

Dead Cell Tab

Eddy

Papa Roach 
Dead Cell 

This is the exact way to play it. 100% right. 

Dropped D Tuning: 

  Intro: 

  E|-------------------------------------------------------- 
  B|-------------------------------------------------------- 
  G|-------------------------------------------------------- 
  D|-------------------------------------------------------- 
  A|---------------------------|---------------------3-3-3-2 
  D|2-0-2-0-2-2-0 (x3) 2-0-4-5 | 2-0-2-0-2-2-0 (x3) -------- 

  Hard part of the intro: (0:09) 

  E|-------------------------------------------------------- 
  B|-------------------------------------------------------- 
  G|-----------------------------------------------5-5-5-4-- 
  D|2-0-2-0-2-2-0------2-0-4-5 |2-0-2-0-2-2-0------5-5-5-4-- 
  A|2-0-2-0-2-2-0 (x3) 2-0-4-5 |2-0-2-0-2-2-0 (x3) 3-3-3-2-- 
  D|2-0-2-0-2-2-0------2-0-4-5 |2-0-2-0-2-2-0--------------- 

[ Tab from: http://www.guitartabs.cc/tabs/p/papa_roach/dead_cell_tab.html ]
  E|-------------------------------------------------------- 
  B|-------------------------------------------------------- 
  G|-----------------------------------------------5-5-5-4-- 
  D|2-0-2-0-2-2-0------2-0-4-5 |2-0-2-0-2-2-0------5-5-5-4-- 
  A|2-0-2-0-2-2-0 (x3) 2-0-4-5 |2-0-2-0-2-2-0 (x3) 3-3-3-2-- 
  D|2-0-2-0-2-2-0------2-0-4-5 |2-0-2-0-2-2-0--------------- 

  Chorus: 

  E|----------------------------------------------- 
  B|----------------------------------------------- 
  G|----------------------------------------------- 
  D|2-4/5-5---------------------------------------- 
  A|2---------------------------------------------- 
  D|2---------------------------------------------- 

  End Breakdown: (Starts at 2:44) 

  E|---------------------------------------- 
  B|---------------------------------------- 
  G|---------------------------------------- 
  D|2-2--2-2--2-2--2-2---------------------- 
  A|2-2--2-2--2-2--2-2---------------------- 
  D|2-2--2-2--2-2--2-2---------------------- 

  Order In Which To Be Played: 

  Intro 
  Hard Intro 
  Verse 
  Chorus 
  Verse 
  Chorus 
  Hard Intro 
  Verse 
  Verse 
  Chorus 
  Hard Intro 
  Chorus 
  End Breakdown 
  Hard Intro 
  Chorus 
Comments