Papa Roach - Code Of Energy Chords & Tabs

 

Code Of Energy Chords & Tabs

Papa Roach Chords & Tabs

Version: 1 Type: Bass Tab 0 ratings
1 star 2 stars 3 stars 4 stars 5 stars
comments

Code Of Energy Bass Tab

Band- Papa Roach
Album- LoveHateTragedy
Song- Code Of Energy
Tuning- Drop D Flat

Intro
|-----------------------|
|-----------------------|
|-----------------------|
|-2--2-2---------2--2-2-|

Verse
|-----------------------------------------|
|-----------------------------------------|
|----------3p2----------------3p2-----2-2-|
|-2-2-5p2------2-5-2--2-2-5p2-----2-2-----|x6

Chorus
|------------------------------|
|------------------------------|
|-0-0--0--0-0--0-3-3--3--------|
|-----------------------5-5--5-|x4

Post-Chorus
|----------------------------------------------|
|----------------------------------------------|
|--------------------------------------7-7-7-7-|
|-3--x-x-3--3-3--3-3--3--x-x-3--3-3--3---------|

Repeat Verse 4 times

Verse 2 Fill
	       x3     First Time		Second Time
|----------------|-----------------|---------------------------------------|
|----------------|-----------------|---------------------------------------|
|-3p2--------2-2-|-3-3-3-3-3-3-3-3-|-3-3-3-3-3-3-3-3-3-7-7-7-7-10-10-10-10-|
|-----5-2--2-----|-----------------|---------------------------------------|

Repeat Chorus

Bridge
|--------------------|
|--------------------|
|--------------------|
|-3--3--3-3--3--3--3-|x2

|-------------------------|
|-------------------------|
|------------3p2-3p2------|
|-2-2-5p2--2---------5-5\-|x4
[ Tab from: http://www.guitartabs.cc/tabs/p/papa_roach/code_of_energy_btab.html ]
Interlude
|--------------------|
|--------------------|
|--------------------|
|-3--x-x-3--3-3--3-3-|x4

		 x2	            x2		       x2
|---------------------|--------------------|---------------|------|
|---------------------|--------------------|---------------|------|
|-------7\---------7\-|-------8\--------8\-|-------7\------|---7\-|
|-2--2------2-2--2----|-3--3-----3-3--3----|-2--2------2-2-|-2----|
                                                   2nd time^
|----------------------|                           end here                 
|----------------------|
|----------------------|
|-2~----------------3~-|

|-------------------------------------------------------------|----|
|-------------------------------------------------------------|----|
|---------------------------------------3-2-0-------3-2---0~--|----|
|-2--2-5--0-2--2-5--2--2-5--0-2--2-5--3-------3~--3-----3-----|-5-3|
                                          Only play these notes^ the 1st time
End Chorus
Play Regular Chorus riff then play this:
|-----------------------------------|
|-----------------------------------|
|-7-7--7--7-7--7-10-10--10-12-12--5-|
|-----------------------------------|x4
                             (on 2nd and 4th times, replace the "5" with a "12")
|--------------------|
|--------------------|
|--------------------|
|-3--x-x-3--3-3--3-3-|x2

|-----------------------------------|
|-----------------------------------|
|-----------------------------------|
|-2--x-x-2--2-2--2-2--2--x-x-2--2-2-|
Comments