Papa Roach - Broken Home Chords & Tabs

 

Broken Home Chords & Tabs

Papa Roach Chords & Tabs

Version: 2 Type: Tab 0 ratings
1 star 2 stars 3 stars 4 stars 5 stars
comments

Broken Home Tab

   
#----------------------------------PLEASE NOTE--------------------------------#
#This file is the author's own work and represents their interpretation of the#
#song. You may only use this file for private study, scholarship, or research.#
#-----------------------------------------------------------------------------#
#-- File created with Instab - http://www.pconline.com/~smcarey/instab.html --#
#-----------------------------------------------------------------------------#

Author/Artist: Papa Roach
Title: Broken Home
Album: Infest
Transcribed by: Martin Rojek
Email: MartinRojek@web.de

Tuning: (D,A,D,g,b,e)
I did not write the whole TAB down because I think
this song easy to understand.

-----------------------------------------||-----------------------------------
-----------------------------------------||-----------------------------------
-----------------------------------------||-----------------------------------
-0-4-4-4-4-0-6-6-6-6-0-7-7-7-7-0-6-6-6-6-||-----------------------------------
-0-4-4-4-4-0-4-4-4-4-0-4-4-4-4-0-4-4-4-4-||-----------------------------------
-0-4-4-4-4-0-4-4-4-4-0-4-4-4-4-0-4-4-4-4-||-----------------------------------
  I don't have an efffect so I play it this way                               
[ Tab from: http://www.guitartabs.cc/tabs/p/papa_roach/broken_home_tab_ver_2.html ]
--------------------------------||-------------------------------------||-----
--------------------------------||-------------------------------------||-----
--------------------------------||-------------------------------------||-----
--------------------------------||-4--------------------2-2------------||-----
-4-4--0-4-4-4-4-5-5-5-5-7-7-7-7-||-4---4/5-5-5-5/7-7-7--2-2------------||-----
-4-4--0-6-6-6-6-7-7-7-7-9-9-9-9-||-4--0-----------------2-2------------||-----
                                   I can't seem to fight this feelings.       

-----------------------------||-----------------------------------------------
-----------------------------||-----------------------------------------------
-----------------------------||-----------------------------------------------
-7---------------------2-2-6-||--12-12-12-12-11-11-11-11-9-9-9-9-7-7-7-7------
-4----4/5-5-5-5/7-7-7--2-2-4-||--12-12-12-12-11-11-11-11-9-9-9-9-7-7-7-7------
-4--0------------------2-2-4-||--12-12-12-12-11-11-11-11-9-9-9-9-7-7-7-7------
 I'm caught in the middle...     Want to know the truth                       

---------------------------------||-------------------------------------------
---------------------------------||-------------------------------------------
---------------------------------||-------------------------------------------
-4-4-x-x-4-4-x-x-4-4-x-x-4-4-x-x-||-4-4----4-4-x-x-2-2-x-x-7-7----7-7-x-x-2---
-4-4-x-x-4-4-x-x-4-4-x-x-4-4-x-x-||-4-4----4-4-x-x-2-2-x-x-4-4----4-4-x-x-2---
-4-4-x-x-4-4-x-x-4-4-x-x-4-4-x-x-||-4-4----4-4-x-x-2-2-x-x-4-4----4-4-x-x-2---
                                                  ...a weak link...           

-----------||-----------------------------------------------------------------
-----------||-----------------------------------------------------------------
-----------||-----------------------------------------------------------------
-2-x-x-6-6-||-----------------------------------------------------------------
-2-x-x-4-4-||-----------------------------------------------------------------
-2-x-x-4-4-||-----------------------------------------------------------------
              I think that is all you should know to play the whole song. When
              you understand the parts I wrote down then you know how to play 
              the rest of the song!     

Comments