Papa Roach - Born With Nothing Die With Everything Chords & Tabs

 

Born With Nothing Die With Everything Chords & Tabs

Papa Roach Chords & Tabs

Version: 5 Type: Tab 0 ratings
1 star 2 stars 3 stars 4 stars 5 stars
comments

Born With Nothing Die With Everything Tab

   
DATE: 03/06/03
BAND: Papa Roach
SONG: ''Born With Nothing Die With Everything''
ALBUM: Lovehatetragedy
TUNING: Dropped D (D-A-D-G-B-E)
TABBED BY: Juan Ignacio Insua.

Hello everybody it's me again from Buenos Aires. This time I'm presenting the tab
of the next Papa Roach's video: B.W.N.D.W.E. 
This video is not yet in Argentina but I think It will be here for March 
10th or 11th. Does anybody knows something about it?? please email me at: 
zzzz02@tutopia.com
Well, here is the tab!! Check out my others Papa Roach's tabs, man!

LEGACY- SHE LOVES ME NOT- WALKING THROUGH BARBED WIRE- TIME AND TIME AGAIN- 
LIFE IS A BULLET- LOVEHATETRAGEDY... and CODE OF ENERGY coming soon!!

Intro
--------------------------------------
--------------------------------------
--------------------------------------
-------5--5---------------------------
3--3----------3--3---6-6-6---6--------
---------------------------------8-8-8        x2

--------------------------------------
--------------------------------------
--------------------------------------
-------5--5---------------------------
---------------------6-6-6---6--------
6--6----------6--6---------------8-8-8        x2

Riff
-----------------------------------------
-----------------------------------------
-----------------------------------------
10-10---12-12---10-10---8-8-8---8---8-8-8
10-10---10-10---10-10---6-6-6---6---8-8-8
10-10-----------10-10---------------8-8-8     x2

-------------------------------------
-------------------------------------
-------------------------------------
6-6---12-12---6-6---8-8-8---8---8-8-8
6-6---10-10---6-6---6-6-6---6---8-8-8
6-6-----------6-6---------------8-8-8         x2

Pre-Chorus

Be very careful in this part cause it's a little long an listen to the song
if you cannot be guided by the tab times which are perfect.
[ Tab from: http://www.guitartabs.cc/tabs/p/papa_roach/born_with_nothing_die_with_everything_tab_ver_5.html ]
-----------------------------------------------------------------------------
-----------------------------------------------------------------------------
-----------------------------------------------------------------------------
10-10-10-10---13-13---10-10---8-8---10-10---10-10---10-10---8-8---10-10---8-8
10-10-10-10---13-13---10-10---8-8---10-10---10-10---10-10---8-8---10-10---8-8
10-10-10-10---13-13---10-10---8-8---10-10---10-10---10-10---8-8---10-10---8-8

This is the first time that I'm not sure about a part of a song, I must 
confess it. I'm not sure about the end of the part but I think it goes like this.

6-6-6-6---6-6---6-6---6-6---5-6-5---8---10
6-6-6-6---6-6---6-6---6-6---5-6-5---8---10
6-6-6-6---6-6---6-6---6-6---5-6-5---8---10

Chorus

----------------------------------
----------------------------------
----------------------------------
10-10-10--------------------------
10-10-10---8h10--x--6h8---5h6p5---
10-10-10-------------------------8     x2

----------------------------------
----------------------------------
----------------------------------
6--6--6---------------------------
6--6--6---8h10--x--6h8---5h6p5----
6--6--6--------------------------8     x2

Interludio

----------------------------------------------------
----------------------------------------------------
----------------------------------------------------
10--10--8--10--13--5--6-----------------------------
10--10--8--10--13--5--6-----------------------------
10--10--8--10--13--5--6----13h15--13h15s17s15--13--8      


------------------------------------------
------------------------------------------
------------------------------------------
10--10--8--10--13--5--6----13-13-13--8-8-8
10--10--8--10--13--5--6----13-13-13--8-8-8
10--10--8--10--13--5--6----13-13-13--8-8-8

Then
----------
----------
----------
10--10--10
10--10--10
10--10--10

Interludio 2

(Wah effect is used here)
----------------------------------
----------------------------------
----------------------------------
----------------------------------
---------8h10--x--6h8---5h6p5-----
10-10----------------------------8     x2

----------------------------------
----------------------------------
----------------------------------
----------------------------------
---------8h10--x--6h8---5h6p5-----
6--6-----------------------------8     x2

Ending
--------
--------
--------
10-10-10
10-10-10
10-10-10    x4


Order:

* Intro
* Riff           x3
* Pre-Chorus
* Chorus         x2
* Riff           x2
* Pre-Chorus
* Chorus         x2
* Interludio     x2
* Interludio 2   x4
* Chorus         x4
* Ending

Ok, I must say that this is not the easiest song that I wrote, but it's not TOO hard.
It has taken me 2 hours to tab it. Enjoy, until the next!!
Comments