Papa Roach - Born With Nothing Die With Everything Chords & Tabs

 

Born With Nothing Die With Everything Chords & Tabs

Papa Roach Chords & Tabs

Version: 4 Type: Tab 0 ratings
1 star 2 stars 3 stars 4 stars 5 stars
comments

Born With Nothing Die With Everything Tab

Papa Roach - Born with nothing, Die with everything
Album - LoveHateTragedy
/ - slide
h - hammer on
x - palm mute

The site didnt have a tab for this so thought i'd try one, it sounds right to me but feel free
to correct it. played in drop D. 

Intro
 --------------------------------------------
 --------------------------------------------
 --------------------------------------------
 ---------5-5--------------------------------
 -----3-3----3-3-3-6-6--6--------------------
 -------------------------8-8-8-8------------ twice

 --------------------------------------------
 ------5-5-----------------------------------
 ---------------6-6--6-----------------------
 --6-6----6-6-6--------8-8-8-8---------------
 --------------------------------------------
 -------------------------------------------- twice
[ Tab from: http://www.guitartabs.cc/tabs/p/papa_roach/born_with_nothing_die_with_everything_tab_ver_4.html ]
 -----------------------------------------
 -----------------------------------------
 -----------------------------------------
 -10-10--12-12--10-----13-----8-----------
 -10-10--10-10--10-----13-----8-----------
 -10-10---------10-x3--13-x3--8--x2------- twice
 
 ------------------------------------------------
 ------------------------------------------------
 -----7-7----------------------------------------
 -6-6-5-5----6-6-6-8-8------8-8-8-8-8------------
 -6-6--------6-6-6-6-6------6-8-8-8-8------------
 -6-6--------6-6-6------------8-8-8-8------------
 
 Verse
 -----------------------------------------
 -----------------------------------------
 -----------------------------------------
 -10-10--12-12--10-----13-----8-----------
 -10-10--10-10--10-----13-----8-----------
 -10-10---------10-x3--13-x3--8--x2------- 
 
 --------------------------------------
 --------------------------------------
 --------------------------------------
 -6-6-5-5-6-6-5-8-8---------6-8-8-8-8--
 -6-6-5-5-6-6-5-6-6---------6-8-8-8-8--
 -6-6-5-5-6-6-5-6-6---------6-8-8-8-8--
 
 Bridge
 -10-10-10-10-13-13-10-10--8-8--10-10--10-10--
 -10-10-10-10-13-13-10-10--8-8--10-10--10-10--
 -10-10-10-10-13-13-10-10--8-8--10-10--10-10--
 ---------------------------------------------
 ---------------------------------------------
 ---------------------------------------------
 
 -10-10--8-8-10-8--8-8-8-8-8-8-8-8-8-8-7-7-8-8-7-7
 -10-10--8-8-10-8--6-6-6-6-6-6-6-6-6-6-7-7-8-8-7-7
 -10-10--8-8-10-8--6-6-6-6-6-6-6-6-6-6-7-7-8-8-7-7
 -------------------------------------------------
 -------------------------------------------------
 -------------------------------------------------
 
 -5p1-1-1-1/3-3-3----------------------
 -3p1-1-1-1/3-3-3----------------------
 -5p1-1-1-1/3-3-3----------------------
 --------------------------------------
 --------------------------------------
 --------------------------------------
 
 Chorus
 -5-5------------------------
 -3-3--x-8h10-x-6h8-x-5h6p5p0
 -5-5------------------------
 ----------------------------
 ----------------------------

 --------------------------------------
 --------------------------------------
 -------------------------------------- 
 -6-6--------------------------repeat--
 -6-6--x-8h10-x-6h8-x-5h6p5p0----------
 -6-6----------------------------------
 
 -----3/5-5-8-8-8----------------------
 -5-5-x-x-x-x-x-x--1/3-3-8-------------
 -3-3-1/3-3-6-6-6--1/3-3-8-------------
 -5-5--------------1/3-3-8-------------
 --------------------------------------

 --------------------------------------
 --------------------------------------
 -3-3h5-3-1-1h3-1-0-0h1-0-0-0-0--------
 --------------------------------------
 --------------------------------------
 --------------------------------------
 
 Outro
 -----------------------------------------
 -----------------------------------------
 -----3/5-5-8-8-8-------------------------
 -5-5-x-x-x-x-x-x--1/3-3-8-8-8-8-8-8-8-8--
 -3-3-1/3-3-6-6-6--1/3-3-8-8-8-8-8-8-8-8--
 -5-5--------------1/3-3-8-8-8-8-8-8-8-8--
 
 -----------------------------------
 -----------------------------------
 -8-8-8-8-7-7-7-7-------------------
 -6-6-6-6-7-7-7-7---------5--5--5---
 -6-6-6-6-5-5-5-5---------3--3--3---
 -------------------------5--5--5---

Corrections, comments, hate mail, death threats to - 
clangerfreak@hotmail.com
~*jinxx*~
 
 
Comments