Papa Roach - Born With Nothing Die With Everything Chords & Tabs

 

Born With Nothing Die With Everything Chords & Tabs

Papa Roach Chords & Tabs

Version: 2 Type: Tab 0 ratings
1 star 2 stars 3 stars 4 stars 5 stars
comments

Born With Nothing Die With Everything Tab

this is my first tabs it may not be 100% right but it sounds good...
so here it is.

tuning:drop d

intro: 

)-----------------------------------
)-----------------------------------
)-----------------------------------   (2 times)
)------7-7--------------------------
)-------------------8-8-8-----------
)-0-0------0-0----9-------0-0-0-0---
[ Tab from: http://www.guitartabs.cc/tabs/p/papa_roach/born_with_nothing_die_with_everything_tab_ver_2.html ]
)-----------------------------------   
)-----------------------------------
)-----------------------------------   (2 times)
)-----7-7---------------------------
)-------------------8-8-8-----------
)-8-8------8-8----9-------8-8-8-8---

chorus:

)-----------------------------------    
)-----------------------------------
)-----------------------------------  (2 times)
)-----------------------------------
)-------10h11----8h9--9-8-6h8-------
)-0-0-0-------0---------------------

)-----------------------------------
)-----------------------------------
)-----------------------------------  (2 times)
)-----------------------------------
)-------10h11-----8h9--9-8-6h8------
)-8-8-8--------8--------------------
Comments