Papa Roach - Blood Brothers Chords & Tabs

 

Blood Brothers Chords & Tabs

Papa Roach Chords & Tabs

Version: 3 Type: Tab 0 ratings
1 star 2 stars 3 stars 4 stars 5 stars
comments

Blood Brothers Tab

Blood Brothers
By; Papa Roach
I may have gotten this song mixed up with another.  This is off the 
top of my head.

NOTE: These (*)notes are palm muted.
[ Tab from: http://www.guitartabs.cc/tabs/p/papa_roach/blood_brothers_tab_ver_3.html ]
     * *    *           * *    * * *  * * *
e)-------------------|------------------------|
B)-------------------|------------------------|
G)---7-7-10-7-9p7----|--7-7-10-7-7------7-----|
d)----------------10-|-------------10-10--10--|
A)-------------------|------------------------|
D)-------------------|------------------------|
     * *    *           * *    * * * * * *       
e)-------------------|------------------------|
B)-------------------|------------------------|
G)---7-7-10-7-9p7----|--7-7-10-7-7------------|
d)----------------10-|-------------7-7-8-7----|
A)-------------------|------------------------|
D)-------------------|------------------------|
There's the intro and the break(jerry uses this once in the middle
of the song somewhere)
Comments