Papa Roach - Blood Brothers Chords & Tabs

 

Blood Brothers Chords & Tabs

Papa Roach Chords & Tabs

Version: 2 Type: Tab 1 rating
1 star 2 stars 3 stars 4 stars 5 stars
comments

Blood Brothers Tab

#-----------------------------------------------------------------------------#
#-- File created with Instab - http://www.pconline.com/~smcarey/instab.html --#
#-----------------------------------------------------------------------------#

Author/Artist: Papa Roach
Title: Blood Brothers
Album: Infest
Transcribed by: Gerard Ruiter
Email: gerard_rulezzz@hotmail.com

In Blood Brothers you have to drop D tunning ( ½ step down)
The order isn't right, but it isn't hard to figure it out.

-|-----------------|---------------------|-----------------|------------------
-|-----------------|---------------------|-----------------|------------------
-|-7-7-10-7-9------|-7-7-10-7-------7----|-7-7-10-7-9------|-7-7-10-7-9-------
-|------------10-7-|----------10-10---10-|------------10-7-|------------10----
-|-----------------|---------------------|-----------------|------------------
-|-----------------|---------------------|-----------------|------------------
                     ^---INTRO---^                                            

---------|-----------------|---------------------|----------------------------
---------|-----------------|---------------------|----------------------------
---------|-7-7-10-7-9------|-7-7-10-7------------|----------------------------
-7-7-8-7-|------------10-7-|----------10-7-7-8-7-|----------------------------
---------|-----------------|---------------------|----------------------------
---------|-----------------|---------------------|----------------------------
                     ^---INTRO---^                                            

-|---------------|-------------------|---------------|-----------------|------
-|---------------|-------------------|---------------|-----------------|------
-|---------------|-----------5-5-5-5-|---------------|-----------------|------
-|-0-0-3-0-2-----|-0-3-0-2---5-5-5-5-|-0-0-3-0-2-----|-0-3-0---3-3-3-3-|------
-|-0-0-------3-0-|-0-------3-3-3-3-3-|-0-0-------3-0-|-0-----0-3-3-3-3-|------
-|-0-0-----------|-0-----------------|-0-0-----------|-0-------3-3-3-3-|------
                     ^---PRE CHORUS---^                                       
[ Tab from: http://www.guitartabs.cc/tabs/p/papa_roach/blood_brothers_tab_ver_2.html ]
-|-----------|-------------|-----------|-------------|-----------|------------
-|-----------|-------------|-----------|-------------|-----------|------------
-|-----------|-------------|-----------|-------------|-----------|------------
-|-3-0-2-----|-3-0-2-------|-3-0-2-----|-3-0-2-------|-3-0-2-----|------------
-|-------3-0-|-------3-0-0-|-------3-0-|-------3-0-0-|-------3-0-|------------
-|-----------|-------------|-----------|-------------|-----------|------------
                     ^---VERSE---^                                            

-|------------|------------|------------|------------|------------|-----------
-|------------|------------|------------|------------|------------|-----------
-|------------|------------|------------|------------|------------|-----------
-|-0-0---0-00-|-0-0---0-00-|-0-0---0-00-|-0-0---0-00-|-0-0---0-00-|-----------
-|-0-0---0-00-|-0-0---0-00-|-0-0---0-00-|-0-0---0-00-|-0-0---0-00-|-----------
-|-0-0---0-00-|-0-0---0-00-|-0-0---0-00-|-0-0---0-00-|-0-0---0-00-|-----------
                     ^---CHORUS---^                                           

-|----------------------------|---------------------------|-------------------
-|----------------------------|---------------------------|-------------------
-|-----------3----------------|---------------------------|-------------------
-|-----------3----------------|---------3-03-03-----------|-------------------
-|-----------1----------------|---------3-03-03-----------|-------------------
-|----------------------------|---------3-03-03-----------|-------------------
       ^-----OR------^---CHORUS END---^------OR-----^                         

-|--------------------------------|---------------------444---444---|---------
-|--------------------------------|---------------------333---333---|---------
-|-33---3---33---3---33--33335555-|-57-77-1077-5-555-7--------------|---------
-|-33-0-3-0-33-0-3-0-33--11113333-|-57-77-1077-5-555-5------0-----0-|---------
-|-11-0-1-0-11-0-1-0-11--11113333-|-35-55-8-55-3-333-5------0-----0-|---------
-|----0---0----0---0--------------|-------------------------0-----0-|---------
                     ^---BRIDGE---^                                           

-|------------|------------|-------------|-------------|-------|--------------
-|------------|------------|-------------|-------------|-------|--------------
-|------------|------------|-5---7-5---7-|-5---7-5---7-|-5---7-|--------------
-|-0-0---0-00-|-0-0---0-00-|-5-0-7-5-0-7-|-5-0-7-5-0-7-|-5-0-7-|--------------
-|-0-0---0-00-|-0-0---0-00-|-3-0-5-3-0-5-|-3-0-5-3-0-5-|-3-0-5-|--------------
-|-0-0---0-00-|-0-0---0-00-|---0-----0---|---0-----0---|---0---|--------------
                     ^---CHORUS AFTER BRIDGE---^                              

Comments